Güzel sözler | Fıkra | Hikaye | Şiir - Şair| Şarkı sözleri | Türküler | Sohbet odaları | Rüya | Sağlık | Biyografi | islam | Güzeller | Paylaş


Canim.net
Akorlar
Akor Ekle
Şarkı sözleri
Yabancı şarkı sözleri
Çeviriler
Türkü
A  B  C  Ç  D  E  F  G  Ğ  H  I  İ  J  K  L  M  N  O  Ö  P  R  S  Ş  T  U  Ü  V  Y  Z 



Children Of Decadence Bass - Children of Bodom



F-----------------------------------------------------------------------------
C-----------------------------------------------------------------------------
G--3-7---3-7-------3-5-------3-7---3----------------------------5-5-5-5-5-5---
D----------------------3-0-----------0--0-0--0~--0-0--0~--0-0-0---------------

F-------------------------------------------
C-------------------------------------------
G---------------------7-7-7-7-7-7-7-7-7-7---
D--0--0-0--0~--0-0-0~-----------------------

F-------------------------------------
C-------------------------------------
G-------------------------------------
D--0--0-0--0~--0-0--0~--0-0-0~--0-0---


F---------------------------------------------------------
C---------------------------------------------------------
G-----------5-5-5-5-5-5---7-7-7-7-7-7-5-5-5-5-3-3-3-3-1---
D--0--0-0-0-------------0---------------------------------

F------------------------------------------------------------------
C------------------------------------------------------------------
G------------------------------------------------------------------
D--7-7--7-7-7-7-7---7-7--7-7-7-7-7---7-7--7-7-7-7-7---7-7--7-7-5---

F-----------------------------------------------------------------------
C-----------------------------------------------------------------------
G-----------------------------------------------------------------------
D--7-7--7-7-7-7-7---7-7--7-7-7-7-7---7-7---7-7-7-7-7---7-7-10---7-7-9---

F------------------------------------------------------------------
C------------------------------------------------------------------
G------------------------------------------------------------------
D--7-7--7-7-7-7-7---7-7--7-7-7-7-7---7-7--7-7-7-7-7---7-7--7-7-5---

F----------------------------------------------------------------------------
C----------------------------------------------------------------------------
G----------------------------------------------------------------------------
D--7-7--7-7-7-7-7-7-7-7-7-7-5---7-7--7-7-7-7-7---7-7---7-7-7-7-7---3-2-7-7---

F------------------------------
C------------------------------
G------------------------------ 2x
D--5--7--7-7-7-7-7-7-7-7-7-7---

F------------------------------
C------------------------------
G------------------------------ 2x
D--5--3--3-3-3-3-3-3-3-3-3-3---

F------------------------------
C------------------------------
G------------------------------ 2x
D--5--7--7-7-7-7-7-7-7-7-7-7---

F--------------------------------------------
C--------------------------------------------
G--------------------------------------------
D--5--3--3-3-3-3-3-3-3-3-3-3---2-3-2-1-2-1---


F--------------------------------------------------
C--------------------------------------------------
G----------------------------------------------5---
D--0-0--0-0-0-0-0---0-0--0-0-0-0-0-0-0-0-0-0-------

F-----------------------------------------------------
C-----------------------------------------------------
G-------------------------------------2---1---3---2---
D--0-0--0-0-0-0-0---0-0--0-0-0-0-0---0---0---0---0----

F------------------------------------------------------------------------------
C------------------------------------------------------------------------------
G----------------------------------------------------------------5-------5-5---
D--0-0--0-0-0-0-0---0-0--0-0-0-0-0---0-0--0-0-0-0-0-0-0-0-0-0--------3-3-------

F---------------------------------------------------
C---------------------------------------------------
G--5-7-7-7-7--5-7---3--5-7-7-7-7-5-7---0--2--3--5---
D---------------------------------------------------

F---------------------------------------------------
C---------------------------------------------------
G--5-7-7-7-7--5-7---3--5-7-7-7-7-5-7---3-----3--5---
D-----------------------------------------3---------

F-------------------------------------------------------------------
C-------------------------------------------------------------------
G--7--5--7-----------------------------7--5--7---------7-----3--5---
D----------0-0-0-0-0-0-0-0-0-0-0-0-0------------0-0-0-----0---------
|-3-| |-3-|

F---------------------------------------------------------------------------
C---------------------------------------------------------------------------
G--7--5--7-----------------------------8--5--7------------------------------
D----------0-0-0-0-0-0-0-0-0-0-0-0-0------------0-0-0-0-0-0-0-0-0-0-0-0-0---
|-3-| |-3-| |-3-| |-3-|


F-------------------------------------------------------------------------------
C-------------------------------------------------------------------------------
G-------------------------------------------------------------------------------
D--0-0-0-0-0-0-0-0-0-0-0-0-0---0-0-0-0-0-0-0-0-0-0-0-0-0----0-0-0-0-0-0-0---1---
|-3-| |-3-| |-3-| |-3-|

F---------------------------------------
C---------------------------------------
G--------------4---0-------5--4---------
D--2---0---2-----------0---------2--2---

F----------------------------------------------------------------
C----------------------------------------------------------------
G------------------------------------------0--2--4-4-4-4-4-4-4---
D--2--2-2-2-2-2-2--0--0-0-0-0-0-0--2--2-2------------------------

F-------------------------------------------------------------------------
C-------------------------------------------------------------------------
G--0--0-0-------------------------5--4----------------5--4----------------
D----------4--2--0--0-0-0-0-0-0---------2--2--2-2-2---------2--2--2-2-2---
|-3-| |-3-|

F------------------------------
C------------------------------
G--------0--0--0-0-0-----------
D--2--0----------------2---0---
|-3-|


F-------------------------------------------
C-------------------------------------------
G--6--6-6--6--6-6--6--6-6--6--4-4-4-4-4-4---
D-------------------------------------------

F---------------------------------------------
C---------------------------------------------
G--6--6-6--6--6-6--6--6-6-6-6-6-6-6-6-6-6-2---
D---------------------------------------------

F-------------------------------------------
C-------------------------------------------
G--6--6-6--6--6-6--6--6-6--6--4-4-4-4-4-4---
D-------------------------------------------

F-----------------
C-----------------
G--6--6-6--6--6---
D-----------------

F--------------------------------
C--------------------------------
G-------------------------------- 2x
D--5---7---7-7-7-7-7-7-7-7-7-7---

F------------------------------
C------------------------------
G------------------------------
D--5--3--3-3-3-3-3-3-3-3-3-3---

1.
F------------------------------
C------------------------------
G------------------------------
D--5--3--3-3-3-3-3-3-3-3-3-3---

2.
F--------------------------
C--------------------------
G-------------2--3--4--5---
D--5--3--3-3---------------

F----------------------------------------------------------------
C----------------------------------------------------------------
G--6-6--6-6-6-6-6--6-6---6-6-6-6-6--6-6--6-6-6-6-6-6-6-6-6-6-2---
D----------------------------------------------------------------

F------------------------------------
C------------------------------------
G--6-6--6-6-6-6-6--6-6---6-6-6-6-6---
D------------------------------------

1.
F-------------------------------
C-------------------------------
G--6-6--6-6-6-6-6-6-6-6-6-6-4---
D-------------------------------

F--------------------------------
C--------------------------------
G--6-6-9--6-6-8--6-6-10--6-6-9---
D--------------------------------

F---------------------------------------------------
C---------------------------------------------------
G--5-7-7-7-7--5-7---3--5-7-7-7-7-5-7---0--2--3--5---
D---------------------------------------------------

F---------------------------------------------------
C---------------------------------------------------
G--5-7-7-7-7--5-7---3--5-7-7-7-7-5-7---3-----3--5---
D-----------------------------------------3---------

F-------------------------------------------------------------------
C-------------------------------------------------------------------
G--7--5--7-----------------------------7--5--7---------7-----3--5---
D----------0-0-0-0-0-0-0-0-0-0-0-0-0------------0-0-0-----0---------
|-3-| |-3-|

F---------------------------------------------------------------------------
C---------------------------------------------------------------------------
G--7--5--7-----------------------------8--5--7------------------------------
D----------0-0-0-0-0-0-0-0-0-0-0-0-0------------0-0-0-0-0-0-0-0-0-0-0---1---
|-3-| |-3-| |-3-|

F------------------------------------
C------------------------------------
G--------------4---0-------5--4------
D--2---0---2-----------0---------2---

F----------------------------------------------------------------
C----------------------------------------------------------------
G------------------------------------------0--2--4-4-4-4-4-4-4---
D--2--2-2-2-2-2-2--0--0-0-0-0-0-0--2--2-2------------------------

F-------------------------------------------------------------------------
C-------------------------------------------------------------------------
G--0--0-0-------------------------5--4----------------5--4----------------
D----------4--2--0--0-0-0-0-0-0---------2--2--2-2-2---------2--2--2-2-2---
|-3-| |-3-|

F------------------------------------------------------------------
C------------------------------------------------------------------
G--------0--0--0-0-0-------------5--4--5--7------5--7--------3-5---
D--2--0----------------2--5--4-------------------------------------
|-3-|

F-----------------------------------------------
C-----------------------------------------------
G----------------------------------0--2--3--5---
D--0--0-0-0-0-0-0--0--0-0-0-0-0-0---------------

F----------------------------------------------------
C----------------------------------------------------
G------------------------------------------3-----5---
D--0--0-0-0-0-0-0--0--0-0-0-0-0-0--0--0-0-----3------

F-----------------------------------------------
C-----------------------------------------------
G----------------------------------3--5--6--8---
D--3--3-3-3-3-3-3--3--3-3-3-3-3-3---------------

F----------------------------------------------------
C----------------------------------------------------
G------------------------------------------6-----8---
D--3--3-3-3-3-3-3--3--3-3-3-3-3-3--3--3-3-----6------

F-----------------------------------------------
C-----------------------------------------------
G----------------------------------0--2--3--5---
D--0--0-0-0-0-0-0--0--0-0-0-0-0-0---------------
F----------------------------------------------------
C----------------------------------------------------
G------------------------------------------3-----5---
D--0--0-0-0-0-0-0--0--0-0-0-0-0-0--0--0-0-----3------

F----------------------------------------------------------------------- -----
C----------------------------------------------------------------------- |
G--7--7-7-7-7-7-7-7-7-7-7-7-7-7-7-7-7-3-3-3-3-3-3-3-3-5-5-5-5-5-5-5-5--- |
D----------------------------------------------------------------------- |
|
F------------------------- | 2x
C------------------------- |
G--3--7--5--3--10--5--7--- |
D------------------------- -----

F---------------------------------------------------------
C---------------------------------------------------------
G--6--6-6-6-6-6--6-6-6-6-6--6-6-9--9-9-9-9-9--9-9-9-9-9---
D---------------------------------------------------------

F----------------------------------------------------------------------
C----------------------------------------------------------------------
G-9-9-6--6-6-6-6-6--6-6-6-6-4--------------------------6-6-6-6-6-6-4---
D------------------------------5-5-5-5-5-5-5-5-5-5-5-5-----------------

F---------------------------------------------------------
C---------------------------------------------------------
G--6--6-6-6-6-6--6-6-6-6-6--6-6-9--9-9-9-9-9--9-9-9-9-9---
D---------------------------------------------------------

F-----------------------------------------------------------
C-----------------------------------------------------------
G--9-9-5--5-5-5-5-5--5-5-5-5--5-5-8--8-8-8-8-8--8-8-8-8-8---
D-----------------------------------------------------------

F--------------------------------------------------------------
C--------------------------------------------------------------
G------0--2--3--5------3-----5------2--3--5--------------------
D--0----------------0-----3------0------------0--0-0-0-0-0-0---
|-3-||-3-|
F---------------------------
C---------------------------
G-----3-----5---3-------5---
D--0-----3----------3-------

F-------------------------------------------------------------------
C-------------------------------------------------------------------
G--7--5--7-----------------------------7--5--7---------7-----3--5---
D----------0-0-0-0-0-0-0-0-0-0-0-0-0------------0-0-0-----0---------
|-3-| |-3-|

F---------------------------------------------------------------------------
C---------------------------------------------------------------------------
G--7--5--7-----------------------------8--5--7------------------------------
D----------0-0-0-0-0-0-0-0-0-0-0-0-0------------0-0-0-0-0-0-0-0-0-0-0---1---
|-3-| |-3-| |-3-|

F-------------------------------------------------------------------------------
C-------------------------------------------------------------------------------
G-------------------------------------------------------------------------------
D--0-0-0-0-0-0-0-0-0-0-0-0-0---0-0-0-0-0-0-0-0-0-0-0-0-0----0-0-0-0-0-0-0---1---
|-3-| |-3-| |-3-| |-3-|

F---------------------------------------
C---------------------------------------
G--------------4---0-------5--4---------
D--2---0---2-----------0---------2--2---

F----------------------------------------------------------------
C----------------------------------------------------------------
G------------------------------------------0--2--4-4-4-4-4-4-4---
D--2--2-2-2-2-2-2--0--0-0-0-0-0-0--2--2-2------------------------

F-------------------------------------------------------------------------
C-------------------------------------------------------------------------
G--0--0-0-------------------------5--4----------------5--4----------------
D----------4--2--0--0-0-0-0-0-0---------2--2--2-2-2---------2--2--2-2-2---
|-3-| |-3-|

F------------------------------------------
C------------------------------------------
G--------0--0--0-0-0-------------5--4--5---
D--2--0----------------2--5--4-------------
|-3-|

F-----------------------------------------------------------------
C-----------------------------------------------------------------
G-----------------------------------------------------------------
D--2-2--2-2-2-2-2---2-2--2-2-2-2-2---2-2--2-2-2-2-2-2-2-2-2-2-0---

F-----------------------------------------------------------------
C-----------------------------------------------------------------
G-----------------------------------------------------------------
D--2-2--2-2-2-2-2---2-2--2-2-2-2-2---2-2--2-2-2-2-2-2-2-5-2-2-4---

F-----------------------------------------------------------------
C-----------------------------------------------------------------
G-----------------------------------------------------------------
D--2-2--2-2-2-2-2---2-2--2-2-2-2-2---2-2--2-2-2-2-2-2-2-2-2-2-0---

F---------------------------------------------------------
C---------------------------------------------------------
G--------------------------------------4----3----5----3---
D--2-2--2-2-2-2-2---2-2--2-2-2-2-2---2----2----2----2-----

F------------
C------------
G------------
D--2--0--2---




Children Of Decadence Bass - Children of Bodom akoru
Children Of Decadence Bass - Children of Bodom notaları,
Children Of Decadence Bass - Children of Bodom tablar bas tablar akord akor oku



iletisim  Reklam  Gizlilik sözlesmesi
Diger sitelerimize baktiniz mi ? Radyo Dinle - milli piyango sonuclari - 2017 yeni yil mesajlari - Güzel sözler Sohbet 2003- 2016 Canim.net Her hakki saklidir.