Güzel sözler | Fıkra | Hikaye | Şiir - Şair| Şarkı sözleri | Türküler | Sohbet odaları | Rüya | Sağlık | Biyografi | islam | Güzeller | Paylaş


Canim.net
Akorlar
Akor Ekle
Şarkı sözleri
Yabancı şarkı sözleri
Çeviriler
Türkü
A  B  C  Ç  D  E  F  G  Ğ  H  I  İ  J  K  L  M  N  O  Ö  P  R  S  Ş  T  U  Ü  V  Y  Z 



Children Of Decadence tab - Children of Bodom



E E E E E E E E
|--------------------------|
|-----------17----------17-|
|-16----16-----17----17----|
|----14-----------14-------|
|--------------------------|
|--------------------------|
|
| Gtr II
| E E H.
|--------------------------|
|--------------------------|
|--5--9--------------------|
|--5--9--------------------|
|--3--7--------------------|
|--------------------------|


E E E E E S S S S S S E E E E E E E E
|------------------------------------|---------------------------|
|------------17----------------------|------------17----------17-|
|-16------16----14----------14-16-17-|-16------16----17----17----|
|------14----------14-16-17----------|----14------------14-------|
|------------------------------------|---------------------------|
|------------------------------------|---------------------------|
|
| H.. E E H..
|------------------------------------|---------------------------|
|------------------------------------|---------------------------|
|-------------------------------5----|--9------------------------|
|-------------------------------5----|--9------------------------|
|-------------------------------3----|--7------------------------|
|------------------------------------|---------------------------|


~~~~~
E S S S S S S S S S S E. +S
|--------------------------14-15-17-17b19----(17)-|
|-----------------13-15-17------------------------|
|-16--11-12-14-16---------------------------------|
|-------------------------------------------------|
|-------------------------------------------------|
|-------------------------------------------------|
|
| Q. Q Q E
|-------------------------------------------------|
|-------------------------------------------------|
|------------------5-----------7----------12------|
|------------------5-----------7----------12------|
|------------------3-----------5----------10------|
|-------------------------------------------------|


E E E E E E E E E E E E E S S S S S S
|---------------------------|------------------------------------|
|------------17----------17-|------------17----------------------|
|-16------16----17----17----|-16------16----14----------14-16-17-|
|----14------------14-------|------14----------14-16-17----------|
|---------------------------|------------------------------------|
|---------------------------|------------------------------------|
|
| E H.. H.. E
|---------------------------|------------------------------------|
|---------------------------|------------------------------------|
|--9------------------------|-------------------------------5----|
|--9------------------------|-------------------------------5----|
|--7------------------------|-------------------------------3----|
|---------------------------|------------------------------------|


E E E E E E E E
|---------------------------|
|------------17----------15-|
|-16------16----17----17----|
|----14------------14-------|
|---------------------------|
|---------------------------|
|
| E H..
|---------------------------|
|---------------------------|
|--9------------------------|
|--9------------------------|
|--7------------------------|
|---------------------------|


E S S S S S S S S S S Q E E E E E E E E
|---------------------------------------|--------------------------|
|-17--12-12-15-15-----------------------|----------17----------17--|
|-----------------14-14-16-16-----------|-16----16----17----17-----|
|-----------------------------12-12-14--|----14----------14--------|
|---------------------------------------|--------------------------|
|---------------------------------------|--------------------------|
|
| PM PM
| H. Q Q E E Q E E
|---------------------------------------|--------------------------|
|---------------------------------------|--------------------------|
|------------------------------------5--|--------------------------|
|------------------------------------5--|--2--------2--2--------2--|
|------------------------------------3--|--2--------2--2--------2--|
|---------------------------------------|--0-----0--0--0-----0--0--|


E E E E E S S S S S S E E E E E E E E
|----------------------------------|-------------------------|
|----------17----------------------|----------17----------17-|
|-16----16----14----------14-16-17-|-16----16----17----17----|
|----14----------14-16-17----------|----14----------14-------|
|----------------------------------|-------------------------|
|----------------------------------|-------------------------|
|
| PM PM------------| PM PM
| Q E E E S S S S S S Q E E Q E E
|----------------------------------|-------------------------|
|----------------------------------|-------------------------|
|----------------------------------|-------------------------|
|--2--------2--2--0--0--0--0--0--0-|--2--------2--2--------2-|
|--2--------2--2-------------------|--2--------2--2--------2-|
|--0-----0--0--0-------------------|--0-----0--0--0-----0--0-|


~~~~~
E S S S S S S S S S S E. +S
|-------------------------14-15-17-17b19-(17)--|
|----------------13-15-17----------------------|
|-16-11-12-14-16-------------------------------|
|----------------------------------------------|
|----------------------------------------------|
|----------------------------------------------|
|
| PM------------------------|
| E S S S S S S S S S S Q
|----------------------------------------------|
|----------------------------------------------|
|-----------------------------------5----------|
|--2--2--2--2--2--2--2--2--2--2--2--5----------|
|--2--------------------------------3----------|
|--0-------------------------------------------|


E E E E E E E E
|-------------------------|
|----------17----------17-|
|-16----16----17----17----|
|----14----------14-------|
|-------------------------|
|-------------------------|
|
| PM PM
| Q E E Q E E
|-------------------------|
|-------------------------|
|-------------------------|
|--2--------2--2--------2-|
|--2--------2--2--------2-|
|--0-----0--0--0-----0--0-|


E E E E E S S S S S S E E E E E E E E
|----------------------------------|-------------------------|
|----------17----------------------|----------17----------15-|
|-16----16----14----------14-16-17-|-16----16----17----17----|
|----14----------14-16-17----------|----14----------14-------|
|----------------------------------|-------------------------|
|----------------------------------|-------------------------|
|
| PM PM------------| PM PM
| Q E E E S S S S S S Q E E Q E E
|----------------------------------|-------------------------|
|----------------------------------|-------------------------|
|----------------------------------|-------------------------|
|--2--------2--2--0--0--0--0--0--0-|--2--------2--2--------2-|
|--2--------2--2-------------------|--2--------2--2--------2-|
|--0-----0--0--0-------------------|--0-----0--0--0-----0--0-|


7____________|
E S S S S S S S S S S Q Q +H +E. +S
|-------------------------------------------|------------------------|
|-17-12-12-15-15----------------------------|------------------------|
|----------------14-14-16-16----------------|------------------------|
|----------------------------12-12-14-------|-15--(15)-----(15)-(15)-|
|-------------------------------------------|------------------------|
|-------------------------------------------|------------------------|
|
| PM----------------------------------|
| E S S S S S S S S S S S S S S W
|-------------------------------------------|------------------------|
|-------------------------------------------|------------------------|
|-------------------------------------------|--3---------------------|
|--2--2--2--2--2--2--2--0--0--0--0----------|--3---------------------|
|--2--------------------------------3-3-3-3-|--1---------------------|
|--0----------------------------------------|------------------------|


PM--------------------------------------------------------------|
S S S S S S S S S S S S S S S S S S S S S S S S S S S S S S S S
|---------------------------------|---------------------------------|
|---------------------------------|---------------------------------|
|---------------------------------|---------------------------------|
|---------------------------------|---------------------------------|
|---------------------------------|---------------------------------|
|-7-7---7-7-7-7-7-7-7---7-7-7-7-7-|-7-7---7-7-7-7-7-7-7---7-7-7-7-7-|


PM----------------------------|
S S S S S S S S S S S S S S S S e H..
|---------------------------------|------------|
|---------------------------------|------------|
|---------------------------------|-(2)--------|
|---------------------------------|--3---------|
|---------------------------------|--3---------|
|-7-7---7-7-7-7-7-7-7---7-7-7-7-7-|--1---------|


PM--------------------------------------------------------|
S S S S S S S S S S S S S S S S S S S S S S S S S S S S S E.
|---------------------------------|-------------------------------|
|---------------------------------|-------------------------------|
|---------------------------------|---------------------------6---|
|---------------------------------|---------------------------7---|
|---------------------------------|---------------------------7---|
|-7-7---7-7-7-7-7-7-7---7-7-7-7-7-|-7-7---7-7-7-7-7-7-7-7-7-7-5---|


PM--------------------------------------------------| PM|
S S S S S S S S S S S S S S S S S S S S S S S S S S E S S E
|---------------------------------|-------------------------------|
|---------------------------------|-------------------------------|
|---------------------------------|-------------------------------|
|---------------------------------|-------------------------------|
|---------------------------------|----------------------9-----8--|
|-7-7---7-7-7-7-7-7-7---7-7-7-7-7-|-7-7---7-7-7-7-7-7-7-10-7-7-9--|


PM--------------------------------------------------------|
S S S S S S S S S S S S S S S S S S S S S S S S S S S S S E.
|---------------------------------|-------------------------------|
|---------------------------------|-------------------------------|
|---------------------------------|---------------------------6---|
|---------------------------------|---------------------------7---|
|---------------------------------|---------------------------7---|
|-7-7---7-7-7-7-7-7-7---7-7-7-7-7-|-7-7---7-7-7-7-7-7-7-7-7-7-5---|


~~~
S S S S S S S S E E E E S S S S S S Q. Q
|---------------------------------|-------------------------|
|---------------------------------|-------------------------|
|-----------------------------6---|-7--6-4-9--7-6-----------|
|-------------------------9-------|---------------9---- 9 --|
|---------------------9-----------|-------------------------|
|-7-7---7-7-7-7-7-7---------------|-------------------------|
|
| PM----------------------------|
| S S S S S S S S S S S S S S S S E. E. Q. +Q
|---------------------------------|-------------------------|
|---------------------------------|-------------------------|
|---------------------------------|-------------------------|
|---------------------------------|-5------4------9----(9)--|
|---------------------------------|-5------4------9----(9)--|
|-7-7---7-7-7-7-7-7-7---7-7-7-7-7-|-3------2------7----(7)--|


E. Q +S S S S S S S S S
|--12---14----(14)-12-15-14-12----14-12----|
|-(14)-(15)--------------------15-------15-|
|------------------------------------------|
|------------------------------------------|
|------------------------------------------|
|------------------------------------------|
|
| PM--------------------------|
| E. E. S S S S S S S S S S
|------------------------------------------|
|------------------------------------------|
|------------------------------------------|
|------------------------------------------|
|---7----9---------------------------------|
|---5----7--7---7---7--7--7--7--7--7--7--7-|


E. Q +S S S S S S S S S
|--12---14----(14)-12-15-14-12----14-12----|
|-(14)-(15)--------------------15-------15-|
|------------------------------------------|
|------------------------------------------|
|------------------------------------------|
|------------------------------------------|
|
| PM--------------------------|
| E. E. S S S S S S S S S S
|------------------------------------------|
|------------------------------------------|
|------------------------------------------|
|------------------------------------------|
|---7----9---------------------------------|
|---5----7--7---7---7--7--7--7--7--7--7--7-|


E. H +S +Q E. H +S S S S S
|--12---10------------(10)-(10)-------|--12---10------------(10)-9h10p9----|
|-(14)-(12)---------------------------|-(14)-(12)-----------------------12-|
|-------------------------------------|------------------------------------|
|-------------------------------------|------------------------------------|
|-------------------------------------|------------------------------------|
|-------------------------------------|------------------------------------|
|
| PM----------------------| PM--------------------|
| E. E. S S S S S S S S S S E. E. S S S S S S S S S S
|-------------------------------------|------------------------------------|
|-------------------------------------|------------------------------------|
|-------------------------------------|------------------------------------|
|-------------------------------------|---7--------------------------------|
|---7----5----------------------------|---5----5---------------------------|
|---5----3--3-3-3-3-3---3----3--3-3-3-|---5----3--3-3-3-3-3---3--3--3-3--3-|


E. Q +S S S S S S S S S
|--12---14----(14)-12-15-14-12----14-12----|
|-(14)-(15)--------------------15-------15-|
|------------------------------------------|
|------------------------------------------|
|------------------------------------------|
|------------------------------------------|
|
| PM--------------------------|
| E. E. S S S S S S S S S S
|------------------------------------------|
|------------------------------------------|
|------------------------------------------|
|------------------------------------------|
|---7----9---------------------------------|
|---5----7--7---7---7--7--7--7--7--7--7--7-|


E. Q +S S S S S S S S S
|--12---14----(14)-12-15-14-12----14-12----|
|-(14)-(15)--------------------15-------15-|
|------------------------------------------|
|------------------------------------------|
|------------------------------------------|
|------------------------------------------|
|
| PM--------------------------|
| E. E. S S S S S S S S S S
|------------------------------------------|
|------------------------------------------|
|------------------------------------------|
|------------------------------------------|
|---7----9---------------------------------|
|---5----7--7---7---7--7--7--7--7--7--7--7-|


E. H +S +Q E. H +S +Q
|--12---10------------(10)-(10)-------|--12---10-------(10)-(10)---|
|-(14)-(12)---------------------------|-(14)-(12)------------------|
|-------------------------------------|----------------------------|
|-------------------------------------|----------------------------|
|-------------------------------------|----------------------------|
|-------------------------------------|----------------------------|
|
| PM---------------------------------------------------|
| E. E. S S S S S S S S S S E. E. E E. E. E
|-------------------------------------|----------------------------|
|-------------------------------------|----------------------------|
|-------------------------------------|----------------------------|
|-------------------------------------|---4----5--4-3----4-------3-|
|---7----5----------------------------|---4----5--4-3----4-------3-|
|---5----3--3-3-3-3-3---3----3--3-3-3-|---2----3--2-1----2-------1-|


PM--------------------------------------------------------|
S S S S S S S S S S S S S S S S S S S S S S S S S S S S S E.
|---------------------------------|-------------------------------|
|---------------------------------|-------------------------------|
|---------------------------------|-------------------------------|
|---------------------------------|---------------------------0---|
|---------------------------------|---------------------------0---|
|-0-0---0-0-0-0-0-0-0---0-0-0-0-0-|-0-0---0-0-0-0-0-0-0-0-0-0-----|


PM----------------------------------| PM| PM| PM|
S S S S S S S S S S S S S S S S S S E S S E S S E S S E
|---------------------------------|--------------------------------|
|---------------------------------|--------------------------------|
|---------------------------------|--------------------------------|
|---------------------------------|--------------------------------|
|---------------------------------|-7--7-10-7--7-9-7--7-11-7--7-10-|
|-0-0---0-0-0-0-0-0-0---0-0-0-0-0-|--------------------------------|
|
| PM----------------------------------| PM| PM| PM|
| S S S S S S S S S S S S S S S S S S E S S E S S E S S E
|---------------------------------|--------------------------------|
|---------------------------------|--------------------------------|
|---------------------------------|--------------------------------|
|---------------------------------|-------9------8------10-------9-|
|---------------------------------|-7-10----7-10---7-10----7-10----|
|-0-0---0-0-0-0-0-0-0---0-0-0-0-0-|--------------------------------|


PM--------------------------------------------------------|
S S S S S S S S S S S S S S S S S S S S S S S S S S S S S E.
|---------------------------------|-------------------------------|
|---------------------------------|-------------------------------|
|---------------------------------|-------------------------------|
|---------------------------------|---------------------------0---|
|---------------------------------|---------------------------0---|
|-0-0---0-0-0-0-0-0-0---0-0-0-0-0-|-0-0---0-0-0-0-0-0-0-0-0-0-----|


PM----------------------------| ~~~~~~~~~
S S S S S S S S S S S S S S S S S S S S S S H +E
|---------------------------------|-------------------------|
|---------------------------------|-------------------------|
|---------------------------------|----------------7----(7)-|
|---------------------------------|---------5--7-9----------|
|---------------------------------|--5--7-9-----------------|
|-0-0---0-0-0-0-0-0-0---0-0-0-0-0-|-------------------------|
|
| PM----------------------------|
| S S S S S S S S S S S S S S S S E. E. H +E
|---------------------------------|-------------------------|
|---------------------------------|-------------------------|
|---------------------------------|-------------------------|
|---------------------------------|--5------5------7----(7)-|
|---------------------------------|--3------5------5----(5)-|
|-0-0---0-0-0-0-0-0-0---0-0-0-0-0-|-(3)-----3---------------|


H. S S S S S S S S S S S S S S S S Q
|-------------------------------|-------------------------------------------|
|-------------------17-17-12-12-|-15--15------------------------------------|
|-------------------------------|--------14-14-16-16-12-12-14-14------------|
|-------------------------------|--------------------------------12-12-14---|
|-------------------------------|-------------------------------------------|
|-------------------------------|-------------------------------------------|
|
| S S S S E E E Q. H. Q
|-------------------------------|-------------------------------------------|
|-------------------------------|-------------------------------------------|
|-7--9-9-9-9-7-9----------------|---------------------------------------5---|
|-7--9-9-9-9-7-9----------------|---------------------------------------5---|
|-5--7-7-7-7-5-7----------------|---------------------------------------3---|
|-------------------------------|-------------------------------------------|


1& 1&
W E E +E E E E +E E
|--------------------|----------------------------|
|--------------------|----------------------------|
|--------------------|---------------9h12-(12)p11-|
|--------------------|-10h12-(12)p10--------------|
|--------------------|----------------------------|
|--------------------|----------------------------|
|
| S S S S E E E Q. Q Q Q Q
|--------------------|----------------------------|
|--------------------|----------------------------|
|-7-9-9-9-9-7-9------|--2------4-----5------7-----|
|-7-9-9-9-9-7-9------|--2------4-----5------7-----|
|-5-7-7-7-7-5-7------|--0------2-----3------5-----|
|--------------------|----------------------------|


H. S S S S S S S S S S S S S S S S Q
|-------------------------------|-------------------------------------------|
|-------------------17-17-12-12-|-15--15------------------------------------|
|-------------------------------|--------14-14-16-16-12-12-14-14------------|
|-------------------------------|--------------------------------12-12-14---|
|-------------------------------|-------------------------------------------|
|-------------------------------|-------------------------------------------|
|
| S S S S E E E Q. H. Q
|-------------------------------|-------------------------------------------|
|-------------------------------|-------------------------------------------|
|-7--9-9-9-9-7-9----------------|---------------------------------------5---|
|-7--9-9-9-9-7-9----------------|---------------------------------------5---|
|-5--7-7-7-7-5-7----------------|---------------------------------------3---|
|-------------------------------|-------------------------------------------|


1& 1&
~~~~~ ~~~~~
W E E +E E E E +E E
|--------------------|----------------------------|
|--------------------|----------------------------|
|--------------------|---------------9h12-(12)p11-|
|--------------------|-10h12-(12)p10--------------|
|--------------------|----------------------------|
|--------------------|----------------------------|
|
| S S S S E E E Q. Q Q Q Q
|--------------------|----------------------------|
|--------------------|----------------------------|
|-7-9-9-9-9-7-9------|--5------------5------7-----|
|-7-9-9-9-9-7-9------|--5------5-----5------7-----|
|-5-7-7-7-7-5-7------|--3------5-----3------5-----|
|--------------------|---------3------------------|


PM------------------------|
E. E. Q E E E E E S S E E S S E E
|----------------|---------------------|
|----------------|---------------------|
|-9--7--9--------|---------------------|
|-9--7--9--------|---------------------|
|-7--5--7--------|---------------------|
|----------0-0-0-|-0-0-0-0-0-0-0-0-0-0-|
|
| PM------------------------|
| E. E. Q E E E E E S S E E S S E E
|----------------|---------------------|
|----------------|---------------------|
|-9--7--9--------|---------------------|
|-9--7--9--------|---------------------|
|-7--5--7--------|---------------------|
|----------0-0-0-|-0-0-0-0-0-0-0-0-0-0-|


PM--|
E. E. Q E E E E E E E E E E E
|----------------|--------------------------|
|----------------|---------12---------------|
|-9--7--9--------|----9-----------12--12p11-|
|-9--7--9--------|-------9-----9------------|
|-7--5--7--------|--7-----------------------|
|----------0-0-0-|--------------------------|
|
| PM--|
| E. E. Q E E E E E E E E E E E
|----------------|--------------------------|
|----------------|----------------12p==8----|
|-9--7--9--------|---------11-12-(12)----11-|
|-9--7--9--------|----9-12------------------|
|-7--5--7--------|-10-----------------------|
|----------0-0-0-|--------------------------|


PM------------------------| PM------------------------|
E. E. Q E E E E E S S E E S S E E E. E. Q E E E E E S S E E S S E E
|----------------|---------------------|-----------------|---------------------|
|----------------|---------------------|-----------------|---------------------|
|-9--7--9--------|---------------------|-10--7--9--------|---------------------|
|-9--7--9--------|---------------------|-10--7--9--------|---------------------|
|-7--5--7--------|---------------------|--8--5--7--------|-2-2-2-2-2-2-2-2-2-2-|
|----------0-0-0-|-0-0-0-0-0-0-0-0-0-0-|-----------0-0-0-|-0-0-0-0-0-0-0-0-0-0-|


PM------------------| PM------------------------|
E E S S E E S S E S S E E S S E E S S E E E E S S E S S E Q
|-----------------------|---------------------|--------------------|
|-----------------------|---------------------|--------------------|
|-----------------------|-9-------------------|--------------------|
|---------------------9-|---------------------|-----------------3--|
|-2-2-2-2-2-2-2-2-2-7---|---2-2-2-2-2-2-2-2-2-|-2-2-2-2-2-2-2---3--|
|-0-0-0-0-0-0-0-0-0-----|---0-0-0-0-0-0-0-0-0-|-0-0-0-0-0-0-0---1--|
|
| PM----------------------------------------------------|
| E E S S E E S S E E E E S S E E S S E E E E S S E S S E Q
|-----------------------|---------------------|--------------------|
|-----------------------|---------------------|--------------------|
|-----------------------|---------------------|--------------------|
|-----------------------|---------------------|-----------------3--|
|-2-2-2-2-2-2-2-2-2-2---|-2-2-2-2-2-2-2-2-2-2-|-2-2-2-2-2-2-2---3--|
|-0-0-0-0-0-0-0-0-0-0---|-0-0-0-0-0-0-0-0-0-0-|-0-0-0-0-0-0-0---1--|


E E E E E E E E E E E E E E E E
|-------14-17-16-14----14-|-------14-17-16-------14-|
|----14-------------17----|----14----------17-14----|
|-------------------------|-------------------------|
|-16----------------------|-16----------------------|
|-------------------------|-------------------------|
|-------------------------|-------------------------|
|
| H H H H
|-------------------------|-------------------------|
|-------------------------|-------------------------|
|-------------------------|--------------6----------|
|--4-----------2----------|--4-----------6----------|
|--4-----------2----------|--4-----------4----------|
|--2-----------0----------|--2----------------------|


~~~~~~~~~
E. E. E E. E. E S S S S S S E +Q +Q
|-17--21--17-16----------|-14--16-17-16--14----14-(14)--(14)--|
|----------------19--17--|------------------17----------------|
|------------------------|------------------------------------|
|------------------------|------------------------------------|
|------------------------|------------------------------------|
|------------------------|------------------------------------|
|
| H H E. E. E +H
|------------------------|------------------------------------|
|------------------------|------------------------------------|
|--2---------------------|--7---------6-----------------------|
|--2----------2----------|--7---------6---------4--(4)--------|
|--0----------2----------|--5---------4---------4--(4)--------|
|-------------0----------|----------------------2--(2)--------|


E E E E E E E E E E E E E E E E
|---------14---17---16-14--------14---|---------14-17-16-----------14----|
|----14---------------------17--------|----14------------17---14---------|
|-------------------------------------|----------------------------------|
|-16----------------------------------|-16-------------------------------|
|-------------------------------------|----------------------------------|
|-------------------------------------|----------------------------------|
|
| PM----------| PM----------| PM| PM----------|
| E S S S S S S E S S S S S S E S S E E E S S S S S S
|-------------------------------------|----------------------------------|
|-------------------------------------|----------------------------------|
|-------------------------------------|----------2--4--6-----------------|
|--4-----------------2----------------|--4-------2--4--6-----------------|
|--4-----------------2----------------|--4-------0--2--4--4-4--4-4--4-4--|
|--2--2-2--2-2--2-2--0--0-0--0-0--0-0-|--2--2-2--------------------------|


E. E. E E. E. E
|-17----21----17-16-----------------|
|----------------------19------17---|
|-----------------------------------|
|-----------------------------------|
|-----------------------------------|
|-----------------------------------|
|
| PM| PM-----------|
| E S S E E E S S S S S S
|-----------------------------------|
|-----------------------------------|
|--2--------------------------------|
|--2--------6--4--2-----------------|
|--0--0--0--6--4--2-----------------|
|-----------4--2--0--0--0--0-0--0-0-|


S S S S S S Q S S S S S S
|-14--16-17-16--14----14--14-16-17-16-14-------|
|------------------17--------------------(17)--|
|----------------------------------------------|
|----------------------------------------------|
|----------------------------------------------|
|----------------------------------------------|
|
| PM---------|
| E. E. Q E S S E
|----------------------------------------------|
|----------------------------------------------|
|--7---------6---------------------------------|
|--7---------6---------4-----------------------|
|--5---------4---------4-----------------------|
|----------------------2---2-----2--2--2-------|


S S S S S S Q S S S S S S
|-14--16-17-16--14----14--14-16-17-16-14------|
|------------------17--------------------(17)-|
|---------------------------------------------|
|---------------------------------------------|
|---------------------------------------------|
|---------------------------------------------|
|
| PM---------|
| E. E. Q E S S E
|---------------------------------------------|
|---------------------------------------------|
|--7---------6--------------------------------|
|--7---------6---------4----------------------|
|--5---------4---------4----------------------|
|----------------------2---2-----2--2--2------|


S S S S S S Q S S S S S S
|-17--19-21-19--17----17--17-19-21-19-17------|
|------------------21--------------------(21)-|
|---------------------------------------------|
|---------------------------------------------|
|---------------------------------------------|
|---------------------------------------------|
|
| PM---------|
| E. E. Q E S S E
|---------------------------------------------|
|---------------------------------------------|
|----------------------2----------------------|
|--4---------2---------2----------------------|
|--4---------2---------0---0-----0--0--0------|
|--2---------0--------------------------------|


S S S S H. E E E E E E E E
|-21p19p17p16-------------|-------------------------|
|-------------------------|----------16----------16-|
|-------------------------|-15----15----16----16----|
|-------------------------|----13----------13-------|
|-------------------------|-------------------------|
|-------------------------|-------------------------|
|
| PM PM
| E. E. Q. Q Q E E Q E E
|-------------------------|-------------------------|
|-------------------------|-------------------------|
|-------------------------|-------------------------|
|--4--------2-------------|--8--------8--8--------8-|
|--4--------2-------------|--6-----x--6--6-----x--6-|
|--2--------0-------------|-------------------------|


E E E E E S S S S S S
|-----------------------------------|
|----------16-----------------------|
|-15----15----13----------13-15-16--|
|----13----------13-15-16-----------|
|-----------------------------------|
|-----------------------------------|
|
| PM------------|
| Q E E E S S S S S S
|-----------------------------------|
|-----------------------------------|
|-----------------------------------|
|--8--------8--8--------------------|
|--6-----x--6--6--4--4--4--4--4--4--|
|-----------------------------------|


~~~~~
E E E E E E E E E S S S S S S S S S S E. +S
|-------------------------|-------------------------13-14-16-16b18-(16)-|
|----------16----------16-|----------------12-14-16---------------------|
|-15----15----16----16----|-15-10-11-13-15------------------------------|
|----13----------13-------|---------------------------------------------|
|-------------------------|---------------------------------------------|
|-------------------------|---------------------------------------------|
|
| PM PM PM------------------------|
| Q E E Q E E E S S S S S S S S S S Q
|-------------------------|---------------------------------------------|
|-------------------------|---------------------------------------------|
|-------------------------|---------------------------------------------|
|--8--------8--8--------8-|--8--------------------------------4---------|
|--6-----x--6--6-----x--6-|--6--6--6--6--6--6--6--6--6--6--6--2---------|
|-------------------------|---------------------------------------------|


E E E E E E E E
|--------------------------|
|----------16----------16--|
|-15----15----16----16-----|
|----13----------13--------|
|--------------------------|
|--------------------------|
|
| PM PM
| Q E E Q E E
|--------------------------|
|--------------------------|
|--------------------------|
|--8--------8--8--------8--|
|--6-----x--6--6-----x--6--|
|--------------------------|


E E E E E S S S S S S E E E E E E E E
|----------------------------------|-------------------------|
|----------16----------------------|----------16----------16-|
|-15----15----13----------13-15-16-|-15----15----16----16----|
|----13----------13-15-16----------|----13----------13-------|
|----------------------------------|-------------------------|
|----------------------------------|-------------------------|
|
| PM------------| PM
| Q E E E S S S S S S Q E E Q Q
|----------------------------------|-------------------------|
|----------------------------------|-------------------------|
|----------------------------------|-------------------------|
|--8--------8--8-------------------|--8--------8--8-----8----|
|--6-----x--6--6--4--4--4--4--4--4-|--6-----x--6--6-----6----|
|----------------------------------|-------------------------|


T T T T T T T T
|--3--| |--3--| |--3--| |-3--| |-3-| |-3--| |-3-| |-3-|
S S S S S S S S S S S S S S S S S S S S S S S S
|-16p14p11-14p=11p9-----------------------------------------------|
|-------------------16p14p11-14p11p9-14p9p7-----------------------|
|-------------------------------------------15p11p8-13p8p6-11p6h8-|
|-----------------------------------------------------------------|
|-----------------------------------------------------------------|
|-----------------------------------------------------------------|
|
| E H..
|-----------------------------------------------------------------|
|-----------------------------------------------------------------|
|-----------------------------------------------------------------|
|--8--------------------------------------------------------------|
|--6--------------------------------------------------------------|
|-----------------------------------------------------------------|


E. Q +S S S S S S S S S
||---12---14----(14)-12-15-14-12----14-12----|
||o-(14)-(15)--------------------15-------15-|
||-------------------------------------------|
||-------------------------------------------|
||o------------------------------------------|
||-------------------------------------------|
|
| PM--------------------------|
| E. E. S S S S S S S S S S
||-------------------------------------------|
||o------------------------------------------|
||-------------------------------------------|
||-------------------------------------------|
||o---7----9---------------------------------|
||----5----7--7---7---7--7--7--7--7--7--7--7-|


E. Q +S S S S S S S S S
|--12---14----(14)-12-15-14-12----14-12-----|
|-(14)-(15)--------------------15-------15--|
|-------------------------------------------|
|-------------------------------------------|
|-------------------------------------------|
|-------------------------------------------|
|
| PM--------------------------|
| E. E. S S S S S S S S S S
|-------------------------------------------|
|-------------------------------------------|
|-------------------------------------------|
|-------------------------------------------|
|---7----9----------------------------------|
|---5----7--7---7---7--7--7--7--7--7--7--7--|


1.
E. H +S +Q E. H +S S S S S
|--12---10------------(10)-(10)-------|--12---10------------(10)-9h10p9-----||
|-(14)-(12)---------------------------|-(14)-(12)-----------------------12-o||
|-------------------------------------|-------------------------------------||
|-------------------------------------|-------------------------------------||
|-------------------------------------|------------------------------------o||
|-------------------------------------|-------------------------------------||
|
| PM----------------------| PM--------------------|
| E. E. S S S S S S S S S S E. E. S S S S S S S S S S
|-------------------------------------|-------------------------------------||
|-------------------------------------|------------------------------------o||
|-------------------------------------|-------------------------------------||
|-------------------------------------|---7---------------------------------||
|---7----5----------------------------|---5----5---------------------------o||
|---5----3--3-3-3-3-3---3----3--3-3-3-|---5----3--3-3-3-3-3---3--3--3-3--3--||


2.
PM----------------------------|
E. H +S +Q S S S S S S S S S S S S S S S S
|--12---10----------(10)-(10)---||----------------------------------|
|-(14)-(12)---------------------||o---------------------------------|
|-------------------------------||----------------------------------|
|-------------------------------||----------------------------------|
|-------------------------------||o-6-6---6-6-6-6-6-6-6---6-6-6-6-6-|
|-------------------------------||----------------------------------|
|
| PM| PM----------------------------|
| E. E. S S E E E E S S S S S S S S S S S S S S S S
|-------------------------------||----------------------------------|
|-------------------------------||o---------------------------------|
|-------------------------------||----------------------------------|
|---------------4-5--------6--7-||----------------------------------|
|---7----5------2-3--------4--5-||o-6-6---6-6-6-6-6-6-6---6-6-6-6-6-|
|---5----3--3-3-----------------||----------------------------------|


PM----------------------| PM----------------------------|
S S S S S S S S S S S S S E. S S S S S S S S S S S S S S S S
|------------------------------|----------------------------------|
|------------------------------|----------------------------------|
|------------------------------|----------------------------------|
|---------------------------4--|----------------------------------|
|-6-6---6-6-6-6-6-6-6-6-6-6-2--|-6-6---6-6-6-6-6-6-6---6-6-6-6-6--|
|------------------------------|----------------------------------|


1. 2.
PM----------------------| PM| PM| PM| PM|
S S S S S S S S S S S S S E. S S E S S E S S E S S E
|-------------------------------||---------------------------|
|------------------------------o||---------------------------|
|-------------------------------||---------------------------|
|---------------------------6---||-----8-----7------9-----8--|
|-6-6---6-6-6-6-6-6-6-6-6-6-4--o||-6-9---6-9---6-9----6-9----|
|-------------------------------||---------------------------|
|
| PM----------------------| PM| PM| PM| PM|
| S S S S S S S S S S S S S E. S S E S S E S S E S S E
|-------------------------------||---------------------------|
|------------------------------o||---------------------------|
|-------------------------------||---------------------------|
|---------------------------6---||---------------------------|
|-6-6---6-6-6-6-6-6-6-6-6-6-4--o||-6-6-9-6-6-8-6-6-10-6-6-9--|
|-------------------------------||---------------------------|


H. S S S S S S S S S S S S S S S S Q
||--------------------------------|------------------------------------------|
||o-------------------17-17-12-12-|-15--15-----------------------------------|
||--------------------------------|--------14-14-16-16-12-12-14-14-----------|
||--------------------------------|--------------------------------12-12-14--|
||o-------------------------------|------------------------------------------|
||--------------------------------|------------------------------------------|
|
| S S S S E E E Q. H. Q
||--------------------------------|------------------------------------------|
||o-------------------------------|------------------------------------------|
||--7--9-9-9-9-7-9----------------|---------------------------------------5--|
||--7--9-9-9-9-7-9----------------|---------------------------------------5--|
||o-5--7-7-7-7-5-7----------------|---------------------------------------3--|
||--------------------------------|------------------------------------------|


1.
1& 1&
W E E +E E E E +E E
|--------------------|-----------------------------||
|--------------------|----------------------------o||
|--------------------|---------------9h12-(12)p11--||
|--------------------|-10h12-(12)p10---------------||
|--------------------|----------------------------o||
|--------------------|-----------------------------||
|
| S S S S E E E Q. Q Q Q Q
|--------------------|-----------------------------||
|--------------------|----------------------------o||
|-7-9-9-9-9-7-9------|--2------4-----5------7------||
|-7-9-9-9-9-7-9------|--2------4-----5------7------||
|-5-7-7-7-7-5-7------|--0------2-----3------5-----o||
|--------------------|-----------------------------||


2.
1& 1&
~~~~~ ~~~~~
W E E +E E E E +E E
|--------------------|----------------------------|
|--------------------|----------------------------|
|--------------------|---------------9h12-(12)p11-|
|--------------------|-10h12-(12)p10--------------|
|--------------------|----------------------------|
|--------------------|----------------------------|
|
| S S S S E E E Q. Q Q Q Q
|--------------------|----------------------------|
|--------------------|----------------------------|
|-7-9-9-9-9-7-9------|--5------------5------7-----|
|-7-9-9-9-9-7-9------|--5------5-----5------7-----|
|-5-7-7-7-7-5-7------|--3------5-----3------5-----|
|--------------------|---------3------------------|


PM------------------------|
E. E. Q E E E E E S S E E S S E E
|----------------|---------------------|
|----------------|---------------------|
|-9--7--9--------|---------------------|
|-9--7--9--------|---------------------|
|-7--5--7--------|---------------------|
|----------0-0-0-|-0-0-0-0-0-0-0-0-0-0-|
|
| PM------------------------|
| E. E. Q E E E E E S S E E S S E E
|----------------|---------------------|
|----------------|---------------------|
|-9--7--9--------|---------------------|
|-9--7--9--------|---------------------|
|-7--5--7--------|---------------------|
|----------0-0-0-|-0-0-0-0-0-0-0-0-0-0-|


PM--|
E. E. Q E E E E E E E E E E E
|------------------|--------------------------|
|------------------|---------12---------------|
|-9--7---9---------|----9-----------12--11----|
|-9--7---9---------|-------9-----9---------12-|
|-7--5---7---------|--7-----------------------|
|------------0-0-0-|--------------------------|
|
| ~~~ PM--|
| E. E. Q E E E E E E E E E E E
|------------------|--------------------------|
|------------------|----------------12--10----|
|-9--7-------------|---------11-12-(12)----11-|
|-9--7-------------|----9-12------------------|
|-7--5-- 7 --------|-10-----------------------|
|------------0-0-0-|--------------------------|


PM------------------------| PM--------------|
E. E. Q E E E E E S S E E S S E E E. E. Q E E E E E S S E S S E Q
|----------------|---------------------|-----------------|--------------------|
|----------------|---------------------|-----------------|--------------------|
|-9--7--9--------|---------------------|-10--7--9--------|--------------------|
|-9--7--9--------|---------------------|-10--7--9--------|--------------------|
|-7--5--7--------|---------------------|--8--5--7--------|-2-2-2-2-2-2-2---3--|
|----------0-0-0-|-0-0-0-0-0-0-0-0-0-0-|-----------0-0-0-|-0-0-0-0-0-0-0---1--|


E E E E E E E E E E E E E E E E
|-------14-17-16-14----14-|-------14-17-16-------14-|
|----14-------------17----|----14----------17-14----|
|-------------------------|-------------------------|
|-16----------------------|-16----------------------|
|-------------------------|-------------------------|
|-------------------------|-------------------------|
|
| H H H H
|-------------------------|-------------------------|
|-------------------------|-------------------------|
|-------------------------|--------------6----------|
|--4-----------2----------|--4-----------6----------|
|--4-----------2----------|--4-----------4----------|
|--2-----------0----------|--2----------------------|


~~~~~~~~~
E. E. E E. E. E S S S S S S E +Q +Q
|-17--21--17-16----------|-14--16-17-16--14----14-(14)--(14)--|
|----------------19--17--|------------------17----------------|
|------------------------|------------------------------------|
|------------------------|------------------------------------|
|------------------------|------------------------------------|
|------------------------|------------------------------------|
|
| H H E. E. E +H
|------------------------|------------------------------------|
|------------------------|------------------------------------|
|--2---------------------|--7---------6-----------------------|
|--2----------2----------|--7---------6---------4--(4)--------|
|--0----------2----------|--5---------4---------4--(4)--------|
|-------------0----------|----------------------2--(2)--------|


E E E E E E E E E E E E E E E E
|---------14---17---16-14--------14---|---------14-17-16-----------14----|
|----14---------------------17--------|----14------------17---14---------|
|-------------------------------------|----------------------------------|
|-16----------------------------------|-16-------------------------------|
|-------------------------------------|----------------------------------|
|-------------------------------------|----------------------------------|
|
| PM----------| PM----------| PM| PM----------|
| E S S S S S S E S S S S S S E S S E E E S S S S S S
|-------------------------------------|----------------------------------|
|-------------------------------------|----------------------------------|
|-------------------------------------|----------2--4--6-----------------|
|--4-----------------2----------------|--4-------2--4--6-----------------|
|--4-----------------2----------------|--4-------0--2--4--4-4--4-4--4-4--|
|--2--2-2--2-2--2-2--0--0-0--0-0--0-0-|--2--2-2--------------------------|


E. E. E E. E. E
|-17----21----17-16-----------------|
|----------------------19------17---|
|-----------------------------------|
|-----------------------------------|
|-----------------------------------|
|-----------------------------------|
|
| PM| PM-----------|
| E S S E E E S S S S S S
|-----------------------------------|
|-----------------------------------|
|--2--------------------------------|
|--2--------6--4--2-----------------|
|--0--0--0--6--4--2-----------------|
|-----------4--2--0--0--0--0-0--0-0-|


S S S S S S Q S S S S S S
|-14--16-17-16--14----14--14-16-17-16-14-------|
|------------------17--------------------(17)--|
|----------------------------------------------|




Children Of Decadence tab - Children of Bodom akoru
Children Of Decadence tab - Children of Bodom notaları,
Children Of Decadence tab - Children of Bodom tablar bas tablar akord akor oku



iletisim  Reklam  Gizlilik sözlesmesi
Diger sitelerimize baktiniz mi ? Radyo Dinle - milli piyango sonuclari - 2017 yeni yil mesajlari - Güzel sözler Sohbet 2003- 2016 Canim.net Her hakki saklidir.