Güzel sözler | Fıkra | Hikaye | Şiir - Şair| Şarkı sözleri | Türküler | Sohbet odaları | Rüya | Sağlık | Biyografi | islam | Güzeller | Paylaş


Canim.net
Akorlar
Akor Ekle
Şarkı sözleri
Yabancı şarkı sözleri
Çeviriler
Türkü
A  B  C  Ç  D  E  F  G  Ğ  H  I  İ  J  K  L  M  N  O  Ö  P  R  S  Ş  T  U  Ü  V  Y  Z 



Chains Of Misery tab - Iron Maiden



intro
e:---------------------------------------------------------------------------|
B:---------------------------------------------------------------------------|
G:---------------------------------------------------------------------------|
D:---------------------------------------------------------------------------|
A:---------------------------------------------------------------------------|
E:0-0-0--0-0-0--0-0-0--0-0-0--0-0-0--0-0-0--0-0-0--0-0-0---------------------|

e:---------------------------------------------------------------------------|
B:---------------------------------------------------------------------------|
G:---------------------------------------------------------------------------|
D:---------------------------------------------------------------------------|
A:---------------------------------------------------------------------------|
E:---------------------------------------------------------------------------|

riffA riffa.1
e:---------------------------------------------------------------------------|
B:---------------------------------------------------------------------------|
G:---------------------------------------------------------------------------|
D:------5--5-----9--7-----5-4---------------------5--5-----9--7-----5--4-----|
A:------2--3-----7--5-----7-7----3--0--2----------2--3-----7--5-----7--7-----|
E:0--0--------0--------0-------0------------0--0--------0--------0--------0--|

e:---------------------------------------------------------------------------|
B:---------------------------------------------------------------------------|
G:---------------------------------------------------------------------fill1-|
D:---------------------------------------------------------------------------|
A:---------------------------------------------------------------------------|
E:---------------------------------------------------------------------------|

riffA.2
e:---------------------------------------------------------------------------|
B:------------------------------------------------8--------------------------|
G:------------------------------------------------7--------------------------|
D:-----------------------------------------5--5---5--7-----------------------|
A:3--0--2----------------------------------2--3------5-----------------------|
E:-----------------------------------0--0------------------------------------|

e:---------------------------------------------------------------------------|
B:---------------------------------------------------------------------------|
G:---------------------------------------------------------------------------|
D:---------------------------------------------------------------------------|
A:---------------------------------------------------------------------------|
E:---------------------------------------------------------------------------|

verse riff riffB
e:---------------------------------------------------------------------------|
B:---------------------------------------------------------------------------|
G:---------------------------------------------------------------------------|
D:-----9--------9--7----7--7--7--5-------5-5-5--5-5-5--5-5-5--5-5-5----------|
A:-----7--------7--5----4--4--4--3-------2-2-2--2-2-2--2-2-2--2-2-2----------|
E:--------0--0---------------------------------------------------------------|

e:----------------------------------------------2-------------2--------------|
B:-----------------------------------------2-3----3-2----2-3----3-2----------|
G:---------------------------------------4-------------4---------------------|
D:---------------------------------------------------------------------------|
A:---------------------------------------------------------------------------|
E:---------------------------------------------------------------------------|

e:---------------------------------------------------------------------------|
B:---------------------------------------------------------------------------|
G:---------------------------------------------------------------------------|
D:------5-5-5--5-5-5--5-5-5--5-5-5--------7-7-7--7-7-7--7-7-7--7-7-7---------|
A:------3-3-3--3-3-3--3-3-3--3-3-3--------4-4-4--4-4-4--4-4-4--4-4-4---------|
E:---------------------------------------------------------------------------|

e:-------------3---------------3-----------------3-------------3-------------|
B:--------3-5-----5-3-----3-5-----5-3-------3-5-----5-3---3-5----5-3---------|
G:------5--------------5------------------6-------------6--------------------|
D:---------------------------------------------------------------------------|
A:---------------------------------------------------------------------------|
E:---------------------------------------------------------------------------|

chorus riff
e:---------------------------------------------------------------------------|
B:---------------------------------------------------------------------------|
G:---------------------------------------------------------------------------|
D:----7-7-7--7-7-7--9-9-9--9-9-9---------------------5--5----9-7----4-5------|
A:----5-5-5--5-5-5--6-6-6--6-6-6---------------------2--3----7-5----7-7---3-0|
E:---------------------------------------------0--0-------0------0------0----|

e:-----------5-------------5-------------------------------------------------|
B:------5-7----7-5----5-7-----7----------------------------------------------|
G:----7-------------8------------8-------------------------------------------|
D:---------------------------------------------------------------------------|
A:---------------------------------------------------------------------------|
E:---------------------------------------------------------------------------|
riffC
e:--------------------3------------------------------------------------------|
B:--------------------3------------------------------------------------------|
G:--------------------0---2--------------------------------------------------|
D:----------5-5----9--0---0--2---------9-------9--7---7-7-7--5---9-----9-7--7|
A:-2--------2-3----7---------0---------7-------7--5---4-4-4--3---7-----7-5--4|
E:-----0-0-------0----3-----------0-------0-0----------------------0-0-------|

e:--------------------------------------------------------------------fill1--|
B:---------------------------------------------------------------------------|
G:---------------------------------------------------------------------------|
D:---------------------------------------------------------------------------|
A:---------------------------------------------------------------------------|
E:---------------------------------------------------------------------------|



fill1 slowriff
e:-----------------------------------------------------------0---------------|
B:-----------------------------------------------------3--------3-----3------|
G:--------------------------------------------------2-----2--------2---------|
D:-7-7-7-----------------------------------------0---------------------------|
A:-4-4-5---------------------------------------------------------------------|
E:---------------------------------------------------------------------------|

e:---------------------------------------------------------------------------|
B:---------------------------------------------------------------------------|
G:------------------------4--5-----4-----------------------------------------|
D:---------------4--5--7--------7--------------------------------------------|
A:---------5--7--------------------------------------------------------------|
E:---------------------------------------------------------------------------|

e:----------------------0----------------------------------0-----------------|
B:----------------3--------3-----3-------------------3--------3-----3--------|
G:-------------0-----0--------0-------------------0-----0--------0-----------|
D:---------------------------------------------------------------------------|
A:----------1----------------------------------2-----------------------------|
E:---------------------------------------------------------------------------|

e:---------------------------------------------------------------------------|
B:---------------------------------------------------------------------------|
G:---------------------------------------------------------------------------|
D:---------------------------------------------------------------------------|
A:---------------------------------------------------------------------------|
E:---------------------------------------------------------------------------|

riff under solo
e:--------------------0------------------------------------------------------|
B:--------------3--------3-----3---------------------------------------------|
G:-----------0-----0--------0------------------------------------------------|
D:-------------------------------------------------7--9--10--3--5-----3-----5|
A:--------3----------------------------------------5--7--8---1--3-----1--3--3|
E:-----------------------------------------------------------------------1---|

e:---------------------------------------------------------------------------|
B:---------------------------------------------------------------------------|
G:---------------------------------------------------------------------------|
D:---------------------------------------------------------------------------|
A:---------------------------------------------------------------------------|
E:---------------------------------------------------------------------------|

lasttime finish
e:--------------------------------------------------0------------------------|
B:--------------------------------------------------0------------------------|
G:--------------------------------------------------9---------------0--------|
D:------------7--9--10--2---3-----5-----------------9------------9--0--------|
A:------------5--7--8---0---1-----3-----------------7------------7--0--------|
E:--------------------------------------------------0------------------------|




Chains Of Misery tab - Iron Maiden akoru
Chains Of Misery tab - Iron Maiden notaları,
Chains Of Misery tab - Iron Maiden tablar bas tablar akord akor oku



iletisim  Reklam  Gizlilik sözlesmesi
Diger sitelerimize baktiniz mi ? Radyo Dinle - milli piyango sonuclari - 2017 yeni yil mesajlari - Güzel sözler Sohbet 2003- 2016 Canim.net Her hakki saklidir.