Güzel sözler | Fıkra | Hikaye | Şiir - Şair| Şarkı sözleri | Türküler | Sohbet odaları | Rüya | Sağlık | Biyografi | islam | Güzeller | Paylaş


Canim.net
Akorlar
Akor Ekle
Şarkı sözleri
Yabancı şarkı sözleri
Çeviriler
Türkü
A  B  C  Ç  D  E  F  G  Ğ  H  I  İ  J  K  L  M  N  O  Ö  P  R  S  Ş  T  U  Ü  V  Y  Z 



Ceza Evinde Bayram Görüşmesi Intro - Bulutsuzluk Özlemi



E||---------------------------|-----------------------|
B||---------------------------|-----------------------|
G||---------------------------|-----------------------|
D||--------0-2----2-0-2--0----|--------0--0-----------|
A||--0-2-3--------------------|--------------3-2-3----|
E||---------------------------|-----------------------|



-------------------------|----------------------||
-------------------------|----------------------||
-------------------------|----------------------||
--------------0----------|----------------------||
----0-2-3-------3-2-2----|---3-2-0-0------------||
-------------------------|----------------------||




Ceza Evinde Bayram Görüşmesi Intro - Bulutsuzluk Özlemi akoru
Ceza Evinde Bayram Görüşmesi Intro - Bulutsuzluk Özlemi notaları,
Ceza Evinde Bayram Görüşmesi Intro - Bulutsuzluk Özlemi tablar bas tablar akord akor oku



iletisim  Reklam  Gizlilik sözlesmesi
Diger sitelerimize baktiniz mi ? Radyo Dinle - milli piyango sonuclari - 2017 yeni yil mesajlari - Güzel sözler Sohbet 2003- 2016 Canim.net Her hakki saklidir.