Güzel sözler | Fıkra | Hikaye | Şiir - Şair| Şarkı sözleri | Türküler | Sohbet odaları | Rüya | Sağlık | Biyografi | islam | Güzeller | Paylaş


Canim.net
Akorlar
Akor Ekle
Şarkı sözleri
Yabancı şarkı sözleri
Çeviriler
Türkü
A  B  C  Ç  D  E  F  G  Ğ  H  I  İ  J  K  L  M  N  O  Ö  P  R  S  Ş  T  U  Ü  V  Y  Z 



Cendere tab - Dizi Müzikleri



GİRİŞ

e-----------------------------------------------------------------
b-----------------------------------------------------------------
g-----------------------------------------------------------------
d----7---7---9---9---10---10----9----9---7---7---9---9---5---5---9
a--7---7---7---7---7----7----7----7----7---7---7---7---7---7---7--
e-----------------------------------------------------------------

DEVAMI

e-----------------------------------------------------------------
b-----------------------------------------------------------------
g-----------------------------------------------------------------
d--7----7---9---9---10---10---9---9---7--7---9--9---5---5---7-----
a--7----7---7---7---7----7----7---7---7--7---7--7---7---7---7-----
e-----------------------------------------------------------------




Cendere tab - Dizi Müzikleri akoru
Cendere tab - Dizi Müzikleri notaları,
Cendere tab - Dizi Müzikleri tablar bas tablar akord akor oku



iletisim  Reklam  Gizlilik sözlesmesi
Diger sitelerimize baktiniz mi ? Radyo Dinle - milli piyango sonuclari - 2017 yeni yil mesajlari - Güzel sözler Sohbet 2003- 2016 Canim.net Her hakki saklidir.