Güzel sözler | Fıkra | Hikaye | Şiir - Şair| Şarkı sözleri | Türküler | Sohbet odaları | Rüya | Sağlık | Biyografi | islam | Güzeller | Paylaş


Canim.net
Akorlar
Akor Ekle
Şarkı sözleri
Yabancı şarkı sözleri
Çeviriler
Türkü
A  B  C  Ç  D  E  F  G  Ğ  H  I  İ  J  K  L  M  N  O  Ö  P  R  S  Ş  T  U  Ü  V  Y  Z 



Cemalim Tab - Erkin Koray



e----------------------------------------------------------
B----------------------------------------------------------
G--16-14-16--14-16-14--------------------------------------
D----------------17-16--14-12-14-16-12-11-9----------------
A-----------------------------------------------------------
E-----------------------------------------------------------

e-----------------------------------------------------------
B-----------------------------------------------------------
G--16-14-16-------14-16-17-19----16-19-18-16-14-12-11-------
D------------14-16-17---------------------------------------
A-----------------------------------------------------------
E-----------------------------------------------------------




Cemalim Tab - Erkin Koray akoru
Cemalim Tab - Erkin Koray notaları,
Cemalim Tab - Erkin Koray tablar bas tablar akord akor oku



iletisim  Reklam  Gizlilik sözlesmesi
Diger sitelerimize baktiniz mi ? Radyo Dinle - milli piyango sonuclari - 2017 yeni yil mesajlari - Güzel sözler Sohbet 2003- 2016 Canim.net Her hakki saklidir.