Güzel sözler | Fıkra | Hikaye | Şiir - Şair| Şarkı sözleri | Türküler | Sohbet odaları | Rüya | Sağlık | Biyografi | islam | Güzeller | Paylaş


Canim.net
Akorlar
Akor Ekle
Şarkı sözleri
Yabancı şarkı sözleri
Çeviriler
Türkü
A  B  C  Ç  D  E  F  G  Ğ  H  I  İ  J  K  L  M  N  O  Ö  P  R  S  Ş  T  U  Ü  V  Y  Z 



Cathedral Flames tab - Cathedral



4&4
Gtr I Play 2x 2.
|-----------|---------------|-----------|--------------||---------------|
|-----------|---------------|-----------|--------------||---------------|
|-----------|---------------|-----------|--------------||---------------|
|-----------|---------------|-8---------|-7------------||-7----------7&-|
|-7---------|-6--------9-10-|-6---------|-5------------||-5----------5&-|
|-5---------|-4--------7--8-|-----------|--------------||---------------|

Play 2x
|------------|--------------|-------------|---------------|
|------------|--------------|-------------|---------------|
|------------|--------------|-------------|---------------|
|-11---------|-------7------|-10----------|-9--6----------|
|--9---------|-------5------|--8----------|-7--4--8--5----|
|------------|--------------|-------------|-------6--3----|

Play 2x til coda
|-------------|-------------------|
|-------------|-------------------|
|-------------|-------------------|
|-------------|-------------------|
|-7---------5-|-58--8-8-8-8-8--8-|
|-5---------3-|-36--6-6-6-6-6--6-|
coda
|-------------|-------------------|
|-------------|-------------------|
|-------------|-------------------|
|-------------|-------------------|
|-7---------5-|-58---8----8----8-|
|-5---------3-|-36---6----6----6-|




|------------|--------------|--------------|--------------|
|------------|--------------|--------------|--------------|
|------------|--------------|--------------|--------------|
|------------|--------------|--------------|--------------|
|-6--------8-|-7------------|-6---------10-|-9------------|
|-4--------6-|-5------------|-4----------8-|-7------------|

|------------|--------------|--------------|--------------|
|------------|--------------|--------------|--------------|
|------------|--------------|--------------|--------------|
|------------|--------------|--------------|--------------|
|-6--------8-|-7------------|-6---------10-|-9&------2----|
|-4--------6-|-5------------|-4----------8-|-7&------0----|




Cathedral Flames tab - Cathedral akoru
Cathedral Flames tab - Cathedral notaları,
Cathedral Flames tab - Cathedral tablar bas tablar akord akor oku



iletisim  Reklam  Gizlilik sözlesmesi
Diger sitelerimize baktiniz mi ? Radyo Dinle - milli piyango sonuclari - 2017 yeni yil mesajlari - Güzel sözler Sohbet 2003- 2016 Canim.net Her hakki saklidir.