Güzel sözler | Fıkra | Hikaye | Şiir - Şair| Şarkı sözleri | Türküler | Sohbet odaları | Rüya | Sağlık | Biyografi | islam | Güzeller | Paylaş


Canim.net
Akorlar
Akor Ekle
Şarkı sözleri
Yabancı şarkı sözleri
Çeviriler
Türkü
A  B  C  Ç  D  E  F  G  Ğ  H  I  İ  J  K  L  M  N  O  Ö  P  R  S  Ş  T  U  Ü  V  Y  Z 



Carneous Cacoffiny tab - Carcass



Intro&Verse
-|--------------------------------------|-------------------------------------
-|--------------------------------------|-------------------------------------
-|--------------------------------------|x2----------------------------------
-|--2-------2-----------------3-2h3p2---|-------------------------------------
-|--0---0-0-0---0-0-0-1-5-2-1--------1--|-------------------------------------
-|--------------------------------------|-------------------------------------
. . . .
-|---------------------------------------------------------------------|------
-|---------------------------------------------------------------------|------
-|---------------------------------------------------------------------|------
-|----------------------------------------3-2----------2-----2---------|------
-|--6------6&7----3---3---3-&6----0-1-4-5-----4h5p4-1--0-----0--4--2---|------
-|--4--4-4-4&7--0-1---1-0-1-&4----------------------------------2--1---|------
. . .

Play Verse 2 more times

Riff 1 (0:58)
-|------------------------------------------------------------|---------------
-|------------------------------------------------------------|---------------
-|------------------------------------------------------------|---------------
-|------------------------------------------------------------|---------------
-|--7------76--3-6-------63--2-3-------3---3-6-------63-6--|---------------
-|--5--5-5-54--1-4--4-4--41--0-1--1-1--1-0-1-4--4-4--41-4--|---------------
. . . . . . . .

Fill 1 (this is just 3&4 of riff 1)
-|---------------------------------------------|
-|---------------------------------------------|
-|---------------------------------------------|
-|--7------76--3-6-------63--2-3-------3---3-|
-|--5--5-5-54--1-4--4-4--41--0-1--1-1--1-0-1-|
. . . . . .

Then straight into
(1:10) Verse x2
(1:36) Riff1 x2

Riff 1A (1:50) x2
-|------------------------------------------------------------------------|---
-|------------------------------------------------------------------------|---
-|------------------------------------------------------------------------|---
-|------------------------------------------------------------------------|---
-|--7-------7&8-11--8-------8&11---12-11--------11&12--11-8-------8&11-8--|---
-|--5--5-5--5&6--9--6--6-6--6&-9---10--9--9-9----9&10---9-6--6-6--6&9--6--|---
. . . . . . . .

Riff 2 (2:03) x2
-|--------------------------------------------------|-------------------------
-|--------------------------------------------------|-------------------------
-|--------------------------------------------------|-------------------------
-|--------------2--3--------------------------------|-------------------------
-|--0--2--3--5--------3--2-----------5-----------3--|-------------------------
-|--------------------------3--5--6-----1--3--4-----|-------------------------

Riff2 x2 (in powerchords)

Riff 3 (2:29) x2 its based around this, it is hard to hear whats going on...
-|----------------------------------------------------------------------------
-|----------------------------------------------------------------------------
-|----------------------------------------------------------------------------
-|-----------------------------------------------------------------76--------
-|--87--------------87-76--------------76-87--------------87-54--------
-|--65-555555555555-65-54-444444444444-54-65-555555555555-65------------


---------------------|--------------------------------------------------------
---------------------|--------------------------------------------------------
---------------------|--------------------------------------------------------
---------------76---|--------------------------------------------------------
--444444444444-54---|--------------------------------------------------------
---------------------|--------------------------------------------------------

Riff 4 (2:37) x2
-|-----------------------------------------------------------------------|----
-|-----------------------------------------------------------------------|----
-|-----------------------------------------------------------------------|----
-|------------------------------------------------4444-------------------|----
-|----------------55-888888887777-----666666666677-----------------------|----
-|--55555555555588---------------8888------------------4444444400004444--|----

Riff 4a (2:47) x4
-|-----------------------------------------|----------------------------------
-|-----------------------------------------|----------------------------------
-|-----------------------------6-----------|----------------------------------
-|--7---------10--9----8-------4-----------|----------------------------------
-|--7-------5-8---7-10-6--6h7----6----2--6-|----------------------------------
-|--5---7-8---------8------------4----0--4-|----------------------------------

Riff 5 (3:06) x4
-|------------------------------|---------------------------------------------
-|------------------------------|---------------------------------------------
-|------------------------------|---------------------------------------------
-|--2----3--------2----3--------|---------------------------------------------
-|--0--0-1--4-3---0--0-1--5-6---|---------------------------------------------
-|----------2-1-----------3-4---|---------------------------------------------
. .
Riff 5 x4 (let chords ring)


Riff 5a (3:29) short, sharp chords
-|-----------------------------------|----------------------------------------
-|-----------------------------------|----------------------------------------
-|-----------------------------------|----------------------------------------
-|-2--3--2-----------2--4--2---------|----------------------------------------
-|-0--1--0----4--3---0--1--0---5--6--|----------------------------------------
-|------------2--1-------------3--4--|----------------------------------------

(3:42) Verse x2
(4:07) Riff1 x1
Fill1 x1
(4:19) Riff2 x2
(4:31) Riff3 x2
(4:40) Riff4 x2
(4:50) Riff4a x4
(5:09) Riff5 x2

Riff 6 (5:15)
-|-------------------------------------------------|--------------------------
-|-------------------------------------------------|--------------------------
-|-------------------------------------------------|--------------------------
-|-------7-&9-7-6---------------5-&7-5-4-----------|--------------------------
-|-----7----------7-----------5----------5---------|--------------------------
-|--5---------------4--5-4-3---------------2--3-4--|--------------------------

(5:20) Riff5 x2
(5:25) Riff6
(5:31) Riff5 x2
(5:36) Riff6

Riff 6A (5:42)
-|------------------------------------------------|---------------------------
-|------------------------------------------------|---------------------------
-|------------------------------------------------|---------------------------
-|-------7-&9-7-6---------------3-2-3-6-3---------|---------------------------
-|-----7----------7-----------3-------------------|---------------------------
-|--5---------------4--5-4-1--------------4--5-4--|---------------------------

Riff6
Riff6a

Riff 7 (5:59) x2
-|----------------------------------------------------------|-----------------
-|----------------------------------------------------------|-----------------
-|----------------------------------------------------------|-----------------
-|-------------6-------------4-------------3----------9-----|-----------------
-|----------7--4----------5--2----------3--1--777777777--6--|-----------------
-|--555555555-----333333333-----111111111----------------4--|-----------------

Riff 8 (6:11) x4
-|--------------------------------------------------------|-------------------
-|--------------------------------------------------------|-------------------
-|--------------------------------------------------------|-------------------
-|--------7--9-7--------7--9-7-------7--9-7-------7--9-6--|-------------------
-|--00000-----------------------------------77777---------|-------------------
-|----------------33333--------11111----------------------|-------------------


End (6:34)
-|-----|
-|-----|
-|-----|
-|-2---|
-|-0---|
-|-----|




Carneous Cacoffiny tab - Carcass akoru
Carneous Cacoffiny tab - Carcass notaları,
Carneous Cacoffiny tab - Carcass tablar bas tablar akord akor oku



iletisim  Reklam  Gizlilik sözlesmesi
Diger sitelerimize baktiniz mi ? Radyo Dinle - milli piyango sonuclari - 2017 yeni yil mesajlari - Güzel sözler Sohbet 2003- 2016 Canim.net Her hakki saklidir.