Güzel sözler | Fıkra | Hikaye | Şiir - Şair| Şarkı sözleri | Türküler | Sohbet odaları | Rüya | Sağlık | Biyografi | islam | Güzeller | Paylaş


Canim.net
Akorlar
Akor Ekle
Şarkı sözleri
Yabancı şarkı sözleri
Çeviriler
Türkü
A  B  C  Ç  D  E  F  G  Ğ  H  I  İ  J  K  L  M  N  O  Ö  P  R  S  Ş  T  U  Ü  V  Y  Z 



Canım Sevgilim Tab - Baha



1--9--10-12-9^10^9------9--10-12-9-------14-14-12-10---9-10-
2-----------------------------------------------------------
3-----------------------------------------------------------
4-----------------------------------------------------------
5-----------------------------------------------------------
6-----------------------------------------------------------


1-12-10-9-7-----7--9-10-7^9^7---7-9-10-7--7-9-10-12--12-10-9
2-----------------------------------------------------------
3-----------------------------------------------------------
4-----------------------------------------------------------
5-----------------------------------------------------------
6-----------------------------------------------------------


1--7^9^7-5----5-7-9-5^7^5--5-7-9-5--5-7-9-10--10-9-7-7-5-7-5
2-----------------------------------------------------------
3-----------------------------------------------------------
4-----------------------------------------------------------
5-----------------------------------------------------------
6-----------------------------------------------------------

1-3-3---2h7-5-5h9-7--10-9-7-5^7^5--9-7-5-3^5^3-2------------
2-----------------------------------------------------------
3-----------------------------------------------------------
4-----------------------------------------------------------
5------------------------------------------------6----------




Canım Sevgilim Tab - Baha akoru
Canım Sevgilim Tab - Baha notaları,
Canım Sevgilim Tab - Baha tablar bas tablar akord akor oku



iletisim  Reklam  Gizlilik sözlesmesi
Diger sitelerimize baktiniz mi ? Radyo Dinle - milli piyango sonuclari - 2017 yeni yil mesajlari - Güzel sözler Sohbet 2003- 2016 Canim.net Her hakki saklidir.