Güzel sözler | Fıkra | Hikaye | Şiir - Şair| Şarkı sözleri | Türküler | Sohbet odaları | Rüya | Sağlık | Biyografi | islam | Güzeller | Paylaş


Canim.net
Akorlar
Akor Ekle
Şarkı sözleri
Yabancı şarkı sözleri
Çeviriler
Türkü
A  B  C  Ç  D  E  F  G  Ğ  H  I  İ  J  K  L  M  N  O  Ö  P  R  S  Ş  T  U  Ü  V  Y  Z 



Can I Play With Madness Solo - Iron Maiden



E5 G5 E5 G5 A5 E5 G5
e:---------------------------------------------------------------------------|
B:---------20------------------20--b(22----22-----Gliss----------------------|
G:19-b(21-----19--b(21----16-------------------------------------------------|
D:-----------------------------------------------------7----7b(9)--5-7-7-----|
A:---------------------------------------------------------------------------|
E:---------------------------------------------------------------------------|

E5 G5 A5
e:---------------------------------------------------------------------------|
B:-----------------------------------------15-15b(17)~----Gliss-down---------|
G:--Gliss-----12-14-14b(16)-r14--12-14s12------------------------------------|
D:--------14-----------------------------------------------------------------|
A:---------------------------------------------------------------------------|
E:---------------------------------------------------------------------------|

e:---------------------------------------------------------------------------|
B:-------------------------------------------------------------------tremolob|
G:---------------15--17-----18-(17)-15-17-17b(18)-15-------------3---slow-dow|
D:-5--5------&17-------------------------------------------5--5--3---ward-ben|
A:-5--5----------------------------------------------------5--5--1-----------|
E:-3--3----------------------------------------------------3--3--------------|

e:-------------------------|
B:ar-----------------------|
G:n------------------------|
D:d---5-5----17------------|
A:----5-5----17--pick-slide|
E:----3-3------------------|




Can I Play With Madness Solo - Iron Maiden akoru
Can I Play With Madness Solo - Iron Maiden notaları,
Can I Play With Madness Solo - Iron Maiden tablar bas tablar akord akor oku



iletisim  Reklam  Gizlilik sözlesmesi
Diger sitelerimize baktiniz mi ? Radyo Dinle - milli piyango sonuclari - 2017 yeni yil mesajlari - Güzel sözler Sohbet 2003- 2016 Canim.net Her hakki saklidir.