Güzel sözler | Fıkra | Hikaye | Şiir - Şair| Şarkı sözleri | Türküler | Sohbet odaları | Rüya | Sağlık | Biyografi | islam | Güzeller | Paylaş


Canim.net
Akorlar
Akor Ekle
Şarkı sözleri
Yabancı şarkı sözleri
Çeviriler
Türkü
A  B  C  Ç  D  E  F  G  Ğ  H  I  İ  J  K  L  M  N  O  Ö  P  R  S  Ş  T  U  Ü  V  Y  Z 



Cambaz Solo Tab - Mor ve Ötesi



E--------------------------|--------------------------|
B-----------7--5--5--------|-----------8--7--7--5--5--|
G--4--5--4-----------7--7--|--5--5--4-----------------|
D--------------------------|--------------------------|
A--------------------------|--------------------------|
E--------------------------|--------------------------|

E--------------------------|--------------------------|
B-----------7--5--5--4--4--|--------------------------|
G--7--5--4-----------------|--5--5--4h-5h-4-----4-----|
D--------------------------|-----------------7-----7--|
A--------------------------|--------------------------|
E--------------------------|--------------------------|

|-----------------------|
|-----------------------|
|--------------------4--|
|--4--5--6--------------|
|-----------7-----------|
|-----------------------|

E--------------------------|---------------------------|
B--------5s-7--5--5--------|-----------8s-10--7h-8h-7--|
G--5--4--------------7--7--|--5--5--4------------------|
D--------------------------|---------------------------|
A--------------------------|---------------------------|
E--------------------------|---------------------------|

E--------------------------|-------------------------||
B--5h-7h-5-----------7--5--|--5--4--4--------4--5----||
G-----------7--5--4--------|-----------5--5----------||
D--------------------------|-------------------------||
A--------------------------|-------------------------||
E--------------------------|-------------------------||




Cambaz Solo Tab - Mor ve Ötesi akoru
Cambaz Solo Tab - Mor ve Ötesi notaları,
Cambaz Solo Tab - Mor ve Ötesi tablar bas tablar akord akor oku



iletisim  Reklam  Gizlilik sözlesmesi
Diger sitelerimize baktiniz mi ? Radyo Dinle - milli piyango sonuclari - 2017 yeni yil mesajlari - Güzel sözler Sohbet 2003- 2016 Canim.net Her hakki saklidir.