Güzel sözler | Fıkra | Hikaye | Şiir - Şair| Şarkı sözleri | Türküler | Sohbet odaları | Rüya | Sağlık | Biyografi | islam | Güzeller | Paylaş
Canim.net
Akorlar
Akor Ekle
Şarkı sözleri
Yabancı şarkı sözleri
Çeviriler
Türkü
A  B  C  Ç  D  E  F  G  Ğ  H  I  İ  J  K  L  M  N  O  Ö  P  R  S  Ş  T  U  Ü  V  Y  Z 



Yağmur Tab - Cem Adrian



Em C Em C
E------0------------0--------------0------------0----------
B-----0------------1--------------0------------1-----------
G----0--0---------0--------------0--0---------0------------
D---2----4-2-0---2----0-2&5-4---2----4-2-0---2---0-2&7-5---
A--2----------2-3--------------2----------2-3--------------
E-0---------------------------0----------------------------



Em C Em C
E------0------------0--------------0------------0----------
B-----0------------1--------------0------------1-----------
G----0--0---------0--------------0--0---------0------------
D---2----4-2-0---2----0-2&5-4---2----4-2-0---2-------------
A--2----------2-3--------------2----------2-3--------------
E-0---------------------------0----------------------------




Yağmur Tab - Cem Adrian akoru
Yağmur Tab - Cem Adrian notaları,
Yağmur Tab - Cem Adrian tablar bas tablar akord akor oku



iletisim  Reklam  Gizlilik sözlesmesi
Diger sitelerimize baktiniz mi ? Radyo Dinle - milli piyango sonuclari - 2017 yeni yil mesajlari - Güzel sözler 2003- 2016 Canim.net Her hakki saklidir.