Güzel sözler | Fıkra | Hikaye | Şiir - Şair| Şarkı sözleri | Türküler | Sohbet odaları | Rüya | Sağlık | Biyografi | islam | Güzeller | Paylaş
Canim.net
Akorlar
Akor Ekle
Şarkı sözleri
Yabancı şarkı sözleri
Çeviriler
Türkü
A  B  C  Ç  D  E  F  G  Ğ  H  I  İ  J  K  L  M  N  O  Ö  P  R  S  Ş  T  U  Ü  V  Y  Z 



Hüzün Kovan Kuşu Tab - Düş Sokağı Sakinleri



E-----0------------|----0------------|-----0-----------|
B---0---0---0---0--|------0---0------|---2---2---0---0-|
G-2-------2---1----|1h2-----2---1-1--|-2-------2---1---|
D------------------|-----------------|-----------------|

gözyaşına dök yağmuru düş uçacak
yollar açılıp konuşacak mutlu...
E-----0-----------|------|----------------------|-------
B-------0---0---0-|--0-0-|--5---5------4---4----|-2---2-
G-1h2-----2---1---|1-----|----6----------4------|---2---
D-----------------|------|----------------------|-------
(x2)

bahara doğru
yokluğunu gözyaşına dök yağmuru
E----------|------0-----------|--------------------|
B-0---0----|--------0---0---0-|--5---5----4---4----|
G---1------|-1h2-------2---1--|----6--------4------|
D----------|------------------|--------------------|
(x2)

düş uçacak bahara doğru yollar açılıp konuşacak
E------0---------------|----------------------|
B--2--------0---0------|-5----5----4---4------|
G----2--------1--------|---6-------- 4--------|
D----------------------|----------------------|

mutlu
edeceğim yokluğunu
E-------0---------|------0-----------|-----0---------------|
B--2--2----0---0--|-------0---0---0--|-------0---0---0-----|
G------------1----|-1h2------2---1---|-1h2-----2---1---1---|
D-----------------|------------------|-------------------2-|
(X2)

huyumdur hep ölürüm nice aşklara bölünürüm
ayımdır hep tutulurum nice ışıkla korunurum
E-----------4--------|-0---0---|---4---0----4---4-----|
B------4^5-----------|---2---2-|-----2--------4---4---|
G--4-----------------|---------|----------------------|
D--------------------|---------|----------------------|

mımm....
E------0-------------|------0-----------------|
B--2--2------0---0---|--------0---0---0-------|
G--------------1-----|-1h2-------2---1---1----|
D--------------------|--------------------2---|
(x2)

hüzün kovan kuşu gelmiş gecenin yanağına konuvermiş
E--0---0---------------|-----0---0--------------------|
B----2-------4---4-----|-------2-----------4---4------|
G--------------4-------|---------------------4--------|
D----------------------|------------------------------|

ay tenli aşık şarkıma karşılık vermiş
E--0----------4--------|------------------0-----------|
B------2h4--5----------|---4---4----2--2-------0---0--|
G----------------------|-----4-------------------1----|
D----------------------|------------------------------|

E------0-----------|------0---------------|------0-------|
B--------0---0---0-|--------0---0---0-----|--------0---0-|
G1h2-------2---1---|1h2-------2---1---1---|1h2-------2---|
D------------------|--------------------2-|--------------|
(x2)


dışım içimden gelir yani gölgem kendimden
aşktır ölümden güzel olan bak ve gör yaşam düşlerdedir

huyumdur hep dirilirim nice dağlardan dökülürüm
ayımdır hep kararırım nice öpüşle aklanırım

hüzün kovan kuşu gelmiş gecenin yanağına konuvermiş
ay tenli aşık şarkıma karşılık vermiş

karşılık vermiş karşılık vermiş
E---------0-----------|------0----------|-----------|
B----2--2-------0---0-|-2--2----0-----0-|-0-----0-0-|
G-----------------1---|-----------1h2---|---1h2-----|
D---------------------|-----------------|-----------|
(x3)




Hüzün Kovan Kuşu Tab - Düş Sokağı Sakinleri akoru
Hüzün Kovan Kuşu Tab - Düş Sokağı Sakinleri notaları,
Hüzün Kovan Kuşu Tab - Düş Sokağı Sakinleri tablar bas tablar akord akor oku



iletisim  Reklam  Gizlilik sözlesmesi
Diger sitelerimize baktiniz mi ? Radyo Dinle - milli piyango sonuclari - 2017 yeni yil mesajlari - Güzel sözler 2003- 2016 Canim.net Her hakki saklidir.