Güzel sözler | Fıkra | Hikaye | Şiir - Şair| Şarkı sözleri | Türküler | Sohbet odaları | Rüya | Sağlık | Biyografi | islam | Güzeller | Paylaş
Canim.net
Akorlar
Akor Ekle
Şarkı sözleri
Yabancı şarkı sözleri
Çeviriler
Türkü
A  B  C  Ç  D  E  F  G  Ğ  H  I  İ  J  K  L  M  N  O  Ö  P  R  S  Ş  T  U  Ü  V  Y  Z 



Here With Out YouTab - 3 Doors Down



e--------------------------------------------------
B------3----2---2--3---------------------2---------
G-----4-4----4---4--4---------0--------2--2--------
D----4---4----4------4------0---0-----2----2-------
A---2-----------------0---2------0---0------0------
E------------------------3-------------------------


e--------------------------------------------------
B------3---2--2--3---------2---3---2--3&5----------
G-----4-4---4--4--4-------2--2--2---2--------------
D----4---4---4-----4-----2----2--2-----------------
A---2---------------2---0--------------------------
E--------------------------------------------------

Chorus

e------0----2&2-----3-2-0---------5&5---3---2--0---
B-----3--3----------------3----2-------------------
G----2----2------2------------2-2-----2---2---2--0-
D---0------------------------2---------------------
A---------------------------0----------------------
E--------------------------------------------------



e-------------0&0----0-----------------------------
B-------3---------3---3----------------------2-----
G------4--4--------4---4-----0------------2---2----
D-----4----4------------0---0-------2&2--2-2---2---
A---2--------------------------2--0-0&0------------
E-------------------------3------------------------




Here With Out YouTab - 3 Doors Down akoru
Here With Out YouTab - 3 Doors Down notaları,
Here With Out YouTab - 3 Doors Down tablar bas tablar akord akor oku



iletisim  Reklam  Gizlilik sözlesmesi
Diger sitelerimize baktiniz mi ? Radyo Dinle - milli piyango sonuclari - 2017 yeni yil mesajlari - Güzel sözler 2003- 2016 Canim.net Her hakki saklidir.