Güzel sözler | Fıkra | Hikaye | Şiir - Şair| Şarkı sözleri | Türküler | Sohbet odaları | Rüya | Sağlık | Biyografi | islam | Güzeller | Paylaş


Canim.net
Akorlar
Akor Ekle
Şarkı sözleri
Yabancı şarkı sözleri
Çeviriler
Türkü
A  B  C  Ç  D  E  F  G  Ğ  H  I  İ  J  K  L  M  N  O  Ö  P  R  S  Ş  T  U  Ü  V  Y  Z 



Eyesore Bass - A New Found Glory



Intro
G-------------------------------------------------------------------------
D-------------------------------------------------------------------------
A--------------4-----2----------------------------------------------------
E--5-----2----------------------------------------------------------------


Verse
G--55555555-22222222-------------------55555555-22222222------------------
D--------------------44444444-22222222------------------44444455-777777777
A-------------------------------------------------------------------------
E-------------------------------------------------------------------------


Pre-Chorus
G--22222222----------55555555----------22222222----------55555555-00000000
D-----------55555555----------77777777----------55555555------------------
A-------------------------------------------------------------------------
E-------------------------------------------------------------------------



Chorus
G--55--------------55--------------55--------------55---------------------
D-----55------5555----55------5555----55------5555----55------5555--------
A--------4444------------4444------------4444------------4444-------------
E-------------------------------------------------------------------------



Bass Solo
G----5-----------------------5--------------------------------------------
D----------5-----------5-----------5-----------7--------------------------
A----------------4-----------------------4--------------------------------
E-------------------------------------------------------------------------



Bridge
G--55--------------55-----------------------------------------------------
D-----55------5555----55------5555----------------------------------------
A--------4444------------4444---------------------------------------------
E-------------------------------------------------------------------------

Intro
Verse
Pre-Chorus
Chorus
Verse
Pre-Chorus
Chorus
Bass Solo
Pre-Chorus
Chorus
Bridge
Chorus




Eyesore Bass - A New Found Glory akoru
Eyesore Bass - A New Found Glory notaları,
Eyesore Bass - A New Found Glory tablar bas tablar akord akor oku



iletisim  Reklam  Gizlilik sözlesmesi
Diger sitelerimize baktiniz mi ? Radyo Dinle - milli piyango sonuclari - 2017 yeni yil mesajlari - Güzel sözler Sohbet 2003- 2016 Canim.net Her hakki saklidir.