Güzel sözler | Fıkra | Hikaye | Şiir - Şair| Şarkı sözleri | Türküler | Sohbet odaları | Rüya | Sağlık | Biyografi | islam | Güzeller | Paylaş


Canim.net
Akorlar
Akor Ekle
Şarkı sözleri
Yabancı şarkı sözleri
Çeviriler
Türkü
A  B  C  Ç  D  E  F  G  Ğ  H  I  İ  J  K  L  M  N  O  Ö  P  R  S  Ş  T  U  Ü  V  Y  Z 



Exnihilotab - Dark Tranquillity



|-------------------------------------------------------------------|
|------5-------------5-------------5-------------5------------------|
|-------------------------------------------------------------------|
|---6h7-7-6-4-6---6h7-7-6-4-6---6h7-7-6-4-6---6h7-7-6-4-6-----------|
|--4------------4-------------4-------------4-----------------------|
|-------------------------------------------------------------------|

|-------------------------------------------------------------------|
|-------8---------------8--------------5-------------5--------------|
|-------------------------------------------------------------------|
|---9h10-10-9-7-9---9h10-10-9-7-9---6h7-7-6-4-6---6h7-7-6-4-6-------|
|--7--------------7---------------4-------------4-------------------|
|-------------------------------------------------------------------|

Solo(well not quite a solo):The synth continues 2 play with the same
pattern..
|-------------------------------------------------------------------|
|-------------------------------------------------------------------|
|------9~~--12-----------------9~~--12------------------------------|
|---6s7-------10s9---su11~--6s7-------10s9---su11~------------------|
|--4--------------7~-------4--------------7~------------------------|
|-------------------------------------------------------------------|

|-------------------------------------------------------------------|
|-------------------------------------------------------------------|
|----.-------0-2-4--1h2p1~------------------------------------------|
|--6-6-6-4-2~-----2~------------------------------------------------|
|-------------------------------------------------------------------|
|-------------------------------------------------------------------|
| |
|-------------------------------------------------------------------|
|-------------------------------------------------------------------|
|------9~~--12------------------------------------------------------|
|---6s7-------10s9---su11~------------------------------------------|
|--4--------------7~------------------------------------------------|
|-------------------------------------------------------------------|

|-------------------------------------------------------------------|
|-------------------------------------------------------------------|
|----.-------0-2-4--1h2p1~------------------------------------------|
|--6-6-6-4-2~-----2~------------------------------------------------|
|-------------------------------------------------------------------|
|-------------------------------------------------------------------|
| |
|-------------------------------------------------------------------|
|-------------------------------------------------------------------|
|------9~~--12------------------------------------------------------|
|---6s7-------10s9---su11~------------------------------------------|
|--4--------------7~------------------------------------------------|
|-------------------------------------------------------------------|

Synth:repeat several times..

|-------------------------------------------------------------------|
|-------------------------------------------------------------------|
|-------------------------------------------------------------------|
|---6-6-6-6h7p6-7-6-7-6---------------------------------------------|
|--4-4-4-4-----4---4------------------------------------------------|
|-------------------------------------------------------------------|

Solo:

|------------2-2h4-4---------4---4-4h5p4s2-2------------------------|
|---5---4-5-2-------4~h5p4------------------5--4-2-5-2--------------|
|---------------------------4-4-4-----------------4-----------------|
|--6-6-6------------------------------------------------------------|
|-------------------------------------------------------------------|
|-------------------------------------------------------------------|

|------------2-2h4-4---------4---4-4h5p4s2-2------------------------|
|---5---4-5-2-------4~h5p4------------------5--4-2-5-2--------------|
|---------------------------4-4-4-----------------4-----------------|
|--6-6-6------------------------------------------------------------|
|-------------------------------------------------------------------|
|-------------------------------------------------------------------|

Use the synth intro pattern:

|-------------------------------------------------------------------|
|-------------------------------------------------------------------|
|----.-------0-2-4--1h2p1~------------------------------------------|
|--6-6-6-4-2~-----2~------------------------------------------------|
|-------------------------------------------------------------------|
|-------------------------------------------------------------------|
| |
|-------------------------------------------------------------------|
|-------------------------------------------------------------------|
|------9~~--12------------------------------------------------------|
|---6s7-------10s9---su11~------------------------------------------|
|--4--------------7~------------------------------------------------|
|-------------------------------------------------------------------|

|-------------------------------------------------------------------|
|-------------------------------------------------------------------|
|----.-------0-2-4--1h2p1~------------------------------------------|
|--6-6-6-4-2~-----2~------------------------------------------------|
|-------------------------------------------------------------------|
|-------------------------------------------------------------------|
| |
|-------------------------------------------------------------------|
|-------------------------------------------------------------------|
|------9~~--12------------------------------------------------------|
|---6s7-------10s9---su11~------------------------------------------|
|--4--------------7~------------------------------------------------|
|-------------------------------------------------------------------|

|------------2-2h4-4---------4---4-4h5p4s2-2------------------------|
|---5---4-5-2-------4~h5p4------------------5--4-2-5-2--------------|
|---------------------------4-4-4-----------------4-----------------|
|--6-6-6------------------------------------------------------------|
|-------------------------------------------------------------------|
|-------------------------------------------------------------------|

|------------2-2h4-4---------4---4-4h5p4s2-2------------------------|
|---5---4-5-2-------4~h5p4------------------5--4-2-5-2--------------|
|---------------------------4-4-4-----------------4-----------------|
|--6-6-6------------------------------------------------------------|
|-------------------------------------------------------------------|
|-------------------------------------------------------------------|

|-------------------------------------------------------------------|
|-------------------------------------------------------------------|
|----.-------0-2-4--1h2p1~------------------------------------------|
|--6-6-6-4-2~-----2~------------------------------------------------|
|-------------------------------------------------------------------|
|-------------------------------------------------------------------|
| |
|-------------------------------------------------------------------|
|-------------------------------------------------------------------|
|------9~~--12------------------------------------------------------|
|---6s7-------10s9---su11~------------------------------------------|
|--4--------------7~------------------------------------------------|
|-------------------------------------------------------------------|

|-------------------------------------------------------------------|
|-------------------------------------------------------------------|
|----.-------0-2-4--1h2p1~------------------------------------------|
|--6-6-6-4-2~-----2~------------------------------------------------|
|-------------------------------------------------------------------|
|-------------------------------------------------------------------|
| |
|-------------------------------------------------------------------|
|-------------------------------------------------------------------|
|------9~~--12------------------------------------------------------|
|---6s7-------10s9---su11~------------------------------------------|
|--4--------------7~------------------------------------------------|
|-------------------------------------------------------------------|

Back 2 synth:

|-------------------------------------------------------------------|
|------5-------------5-------------5-------------5------------------|
|-------------------------------------------------------------------|
|---6h7-7-6-4-6---6h7-7-6-4-6---6h7-7-6-4-6---6h7-7-6-4-6-----------|
|--4------------4-------------4-------------4-----------------------|
|-------------------------------------------------------------------|

|-------------------------------------------------------------------|
|-------8---------------8--------------5-------------5--------------|
|-------------------------------------------------------------------|
|---9h10-10-9-7-9---9h10-10-9-7-9---6h7-7-6-4-6---6h7-7-6-4-6-------|
|--7--------------7---------------4-------------4-------------------|
|-------------------------------------------------------------------|

There r simple notes that run with this pattern until the fade out...

|-------------------------------------------------------------------|
|--14-14-14s12~--12-12-12&14~~~12-12&14~~~-------------------------|
|-------------------------------------------------------------------|
|-------------------------------------------------------------------|
|-------------------------------------------------------------------|
|-------------------------------------------------------------------|




Exnihilotab - Dark Tranquillity akoru
Exnihilotab - Dark Tranquillity notaları,
Exnihilotab - Dark Tranquillity tablar bas tablar akord akor oku



iletisim  Reklam  Gizlilik sözlesmesi
Diger sitelerimize baktiniz mi ? Radyo Dinle - milli piyango sonuclari - 2017 yeni yil mesajlari - Güzel sözler Sohbet 2003- 2016 Canim.net Her hakki saklidir.