Güzel sözler | Fıkra | Hikaye | Şiir - Şair| Şarkı sözleri | Türküler | Sohbet odaları | Rüya | Sağlık | Biyografi | islam | Güzeller | Paylaş


Canim.net
Akorlar
Akor Ekle
Şarkı sözleri
Yabancı şarkı sözleri
Çeviriler
Türkü
A  B  C  Ç  D  E  F  G  Ğ  H  I  İ  J  K  L  M  N  O  Ö  P  R  S  Ş  T  U  Ü  V  Y  Z 



Evil Woman tab - Black Sabbath



|--------------------------------------------
|----------------6~--------------------------
|-7-----------&5-----------8-7-8p7-----------
|-7-------3------------6-----------10----8---
|-5-------3------------6---------------------
|---------1------------4---------------------

Verse:
|---------------||---------------||---------------|
|---------------||---------------||---------------|
|---------------||-7---9---------||---------------|
|-3---5-- X 12 -||-7---9-- X 4 --||-3---5-- X 4 --|
|-3---5---------||-5---7---------||-3---5---------|
|-1---3---------||---------------||-1---3---------|

"Evil woman don`t you play..."
|-------------------------------
|-------------------------------
|-------------------------------
|-5--5--3--3--6--6--8--8--------
|-5--5--3--3--6--6--8--8--------
|-3--3--1--1--4--4--6--6--------

Pre-solo:
|----------------------------------------------------------
|----------------------------------------------------------
|----------------------------------------------------------
|----------------------------------------------------------
|----------------------------------------------------------
|-1-1-1-1-1-1-1-1-1-1-1-1-1-1-1-1-1-1-1-1-1-1-1-1-1-1-1-1--

Solo:
|---------------------------------|-----12-------------12----15^-
|-3-5-5^--------------------------|-15^----15-12----12----15-----
|-3-5-5^--5--3--5p3---------------|--------------14^-------------
|-------------------5-5---- X 2 -|------------------------------
|---------------------------------|------------------------------
|---------------------------------|------------------------------

|-12-----------12-------12--------------12--------------
|----15-----12----15-12----15p12-----12----15p12--------
|-------14^----------------------14^-------------14-12~-
|-------------------------------------------------------
|-------------------------------------------------------
|-------------------------------------------------------

|--------12-15p12--------------------12---------------
|-----12----------15-15p12--------12----15p12---------
|-14^----------------------14-14^-------------14-12~--
|-----------------------------------------------------
|-----------------------------------------------------
|-----------------------------------------------------

|----------------------------12------12-----12------
|----------------------12h15-------12-----12---15^--
|----------------12-14^---------14^----14^----------
|-14p12----12h14------------------------------------
|-------14------------------------------------------
|---------------------------------------------------

|-12------------12---------------------12------------------
|----15-12----12---15p12-------------12---15p12------------
|----------14^-----------14-12----14^-----------14-12------
|------------------------------14--------------------------
|----------------------------------------------------------
|----------------------------------------------------------




Evil Woman tab - Black Sabbath akoru
Evil Woman tab - Black Sabbath notaları,
Evil Woman tab - Black Sabbath tablar bas tablar akord akor oku



iletisim  Reklam  Gizlilik sözlesmesi
Diger sitelerimize baktiniz mi ? Radyo Dinle - milli piyango sonuclari - 2017 yeni yil mesajlari - Güzel sözler Sohbet 2003- 2016 Canim.net Her hakki saklidir.