Güzel sözler | Fıkra | Hikaye | Şiir - Şair| Şarkı sözleri | Türküler | Sohbet odaları | Rüya | Sağlık | Biyografi | islam | Güzeller | Paylaş


Canim.net
Akorlar
Akor Ekle
Şarkı sözleri
Yabancı şarkı sözleri
Çeviriler
Türkü
A  B  C  Ç  D  E  F  G  Ğ  H  I  İ  J  K  L  M  N  O  Ö  P  R  S  Ş  T  U  Ü  V  Y  Z 



Everything I Do I Do It For You Bass - A New Found Glory



Everything I Do I Do It For You (Bass)
Intro&Verse 1: {0:15}
G--------------------------------------------------------------
D--------------------------------------------------------------
A-4--3--1-----4--3-----4---6-xx4xx6-xx4xx6-xx4xx6-6--4--3--4--4
E----------4--------2---4--------------------------------------


{0:55} Verse 1 **faster**


Verse 2: {1:32}
G------------------------------------------------------
D------------------------------------------------------
A-222222--------222222--------444444-333333-666666-----
E--------000000--------222222----------------------4--4


Verse 3: {1:55}
G------------------------------------------------------------------------------
D------------------------------------------------------------------------------
A--------4-------------4------666666--------666666--------4-4---3-3------------
E-2-------------2--------------------444444--------444444-------------2-2---222


Ending: {2:37}
G-----------
D-----------
A-4--3-----4
E-------2---

Intro&Verse 1: {0:15}
G--------------------------------------------------------------
D--------------------------------------------------------------
A-4--3--1-----4--3-----4---6-xx4xx6-xx4xx6-xx4xx6-6--4--3--4--4
E----------4--------2---4--------------------------------------


{0:55} Verse 1 **faster**


Verse 2: {1:32}
G------------------------------------------------------
D------------------------------------------------------
A-222222--------222222--------444444-333333-666666-----
E--------000000--------222222----------------------4--4


Verse 3: {1:55}
G------------------------------------------------------------------------------
D------------------------------------------------------------------------------
A--------4-------------4------666666--------666666--------4-4---3-3------------
E-2-------------2--------------------444444--------444444-------------2-2---222


Ending: {2:37}
G-----------
D-----------
A-4--3-----4
E-------2---




Everything I Do I Do It For You Bass - A New Found Glory akoru
Everything I Do I Do It For You Bass - A New Found Glory notaları,
Everything I Do I Do It For You Bass - A New Found Glory tablar bas tablar akord akor oku



iletisim  Reklam  Gizlilik sözlesmesi
Diger sitelerimize baktiniz mi ? Radyo Dinle - milli piyango sonuclari - 2017 yeni yil mesajlari - Güzel sözler Sohbet 2003- 2016 Canim.net Her hakki saklidir.