Güzel sözler | Fıkra | Hikaye | Şiir - Şair| Şarkı sözleri | Türküler | Sohbet odaları | Rüya | Sağlık | Biyografi | islam | Güzeller | Paylaş


Canim.net
Akorlar
Akor Ekle
Şarkı sözleri
Yabancı şarkı sözleri
Çeviriler
Türkü
A  B  C  Ç  D  E  F  G  Ğ  H  I  İ  J  K  L  M  N  O  Ö  P  R  S  Ş  T  U  Ü  V  Y  Z 



Everybody Hurts tab - R.E.M



D G5

||--------2-----|-------2-----|-------3-----|-------3-------||
||------3---3---|-----3---3---|---------3---|---------3-----||
||----2-------2-|---2-------0-|-----0-----0-|-----0-----0---||
||--0-----------|-0-----------|---0---------|---0-----------||
||o-------------|-------------|-------------|--------------o||
||--------------|-------------|-3-----------|-3-------------||


D G5

|-------2-----|-------2-----|-------3-----|-------3-----|
|-----3---3---|-----3---3---|---------3---|---------3---|
|---2-------2-|---2-------0-|-----0-----0-|-----0-----0-|
|-0-----------|-0-----------|---0---------|---0---------|
|-------------|-------------|-------------|-------------|
|-------------|-------------|-3-----------|-3-----------|


D G5

|-------2-----|-------2-----|-------3-----|-------3-----|
|-----3---3---|-----3---3---|---------3---|---------3---|
|---2-------2-|---2-------0-|-----0-----0-|-----0-----0-|
|-0-----------|-0-----------|---0---------|---0---------|
|-------------|-------------|-------------|-------------|
|-------------|-------------|-3-----------|-3-----------|


D G5

|-------2-----|-------2-----|-------3-----|-------3-----|
|-----3---3---|-----3---3---|---------3---|---------3---|
|---2-------2-|---2-------0-|-----0-----0-|-----0-----0-|
|-0-----------|-0-----------|---0---------|---0---------|
|-------------|-------------|-------------|-------------|
|-------------|-------------|-3-----------|-3-----------|


D G5 G&F#

|-------2-----|-------2-----|-------3-----|-------------||
|-----3---3---|-----3---3---|---------3---|-------------||
|---2-------2-|---2-------0-|-----0-----0-|-----0-----0-||
|-0-----------|-0-----------|---0---------|---0-----0---||
|-------------|-------------|-------------|-------------||
|-------------|-------------|-3-----------|-3-----2-----||


Em A

|-------0-----|-------0-----|-------0-----|-------0-----|
|---------0---|---------0---|---------2---|---------2---|
|-----------0-|-----------0-|-----2-----2-|-----2-----2-|
|-----2-------|-----2-------|---2---------|---2---------|
|---2---------|---2---------|-0-----------|-0-----------|
|-0-----------|-0-----------|-------------|-------------|


Em A


|-------0-----|-------0-----|-------0-----|-------0-----|
|---------0---|---------0---|---------2---|---------2---|
|-----------0-|-----------0-|-----2-----2-|-----2-----2-|
|-----2-------|-----2-------|---2---------|---2---------|
|---2---------|---2---------|-0-----------|-0-----------|
|-0-----------|-0-----------|-------------|-------------|


Em A

|-------0-----|-------0-----|-------0-----|-------0-----|
|---------0---|---------0---|---------2---|---------2---|
|-----------0-|-----------0-|-----2-----2-|-----2-----2-|
|-----2-------|-----2-------|---2---------|---2---------|
|---2---------|---2---------|-0-----------|-0-----------|
|-0-----------|-0-----------|-------------|-------------|


D G5

|-------2-----|-------2-----|-------3-----|-------3-----|
|-----3---3---|-----3---3---|---------3---|---------3---|
|---2-------2-|---2-------0-|-----0-----0-|-----0-----0-|
|-0-----------|-0-----------|---0---------|---0---------|
|-------------|-------------|-------------|-------------|
|-------------|-------------|-3-----------|-3-----------|


D G5

|-------2-----|-------2-----|-------3-----|-------3-----|
|-----3---3---|-----3---3---|---------3---|---------3---|
|---2-------2-|---2-------0-|-----0-----0-|-----0-----0-|
|-0-----------|-0-----------|---0---------|---0---------|
|-------------|-------------|-------------|-------------|
|-------------|-------------|-3-----------|-3-----------|


D G5

|-------2-----|-------2-----|-------3-----|-------3-----|
|-----3---3---|-----3---3---|---------3---|---------3---|
|---2-------2-|---2-------0-|-----0-----0-|-----0-----0-|
|-0-----------|-0-----------|---0---------|---0---------|
|-------------|-------------|-------------|-------------|
|-------------|-------------|-3-----------|-3-----------|


D G5

|-------2-----|-------2-----|-------3-----|-------3-----|
|-----3---3---|-----3---3---|---------3---|---------3---|
|---2-------2-|---2-------0-|-----0-----0-|-----0-----0-|
|-0-----------|-0-----------|---0---------|---0---------|
|-------------|-------------|-------------|-------------|
|-------------|-------------|-3-----------|-3-----------|


D G5

|-------2-----|-------2-----|-------3-----|-------3-----|
|-----3---3---|-----3---3---|---------3---|---------3---|
|---2-------2-|---2-------0-|-----0-----0-|-----0-----0-|
|-0-----------|-0-----------|---0---------|---0---------|
|-------------|-------------|-------------|-------------|
|-------------|-------------|-3-----------|-3-----------|


D G5 G&F#

|-------2-----|-------2-----|-------3-----|-------------||
|-----3---3---|-----3---3---|---------3---|-------------||
|---2-------2-|---2-------0-|-----0-----0-|-----0-----0-||
|-0-----------|-0-----------|---0---------|---0-----0---||
|-------------|-------------|-------------|-------------||
|-------------|-------------|-3-----------|-3-----2-----||


Em A

|-------0-----|-------0-----|-------0-----|-------0-----|
|---------0---|---------0---|---------2---|---------2---|
|-----------0-|-----------0-|-----2-----2-|-----2-----2-|
|-----2-------|-----2-------|---2---------|---2---------|
|---2---------|---2---------|-0-----------|-0-----------|
|-0-----------|-0-----------|-------------|-------------|


Em A

|-------0-----|-------0-----|-------0-----|-------0-----|
|---------0---|---------0---|---------2---|---------2---|
|-----------0-|-----------0-|-----2-----2-|-----2-----2-|
|-----2-------|-----2-------|---2---------|---2---------|
|---2---------|---2---------|-0-----------|-0-----------|
|-0-----------|-0-----------|-------------|-------------|


Em A

|-------0-----|-------0-----|-------0-----|-------0-----||
|---------0---|---------0---|---------2---|---------2---||
|-----------0-|-----------0-|-----2-----2-|-----2-----2-||
|-----2-------|-----2-------|---2---------|---2---------||
|---2---------|---2---------|-0-----------|-0-----------||
|-0-----------|-0-----------|-------------|-------------||


F# Bm

|-------2-----|-------2-----|-------2-----|-------2-----|
|---------2---|---------2---|---------3---|---------3---|
|-----------3-|-----------3-|-----4-----4-|-----4-----4-|
|-----4-------|-----4-------|---4---------|---4---------|
|---4---------|---4---------|-2-----------|-2-----------|
|-2-----------|-2-----------|-------------|-------------|


F# A Bm

|-------2-----|-------2-----|-------2-----|-------2-----|
|---------2---|---------2---|---------3---|---------3---|
|-----------3-|-----------3-|-----4-----4-|-----4-----4-|
|-----4-------|-----4-------|---4---------|---4---------|
|---4---------|---4---------|-2-----------|-2-----------|
|-2-----------|-2-----------|-------------|-------------|


F# Bm

|-------2-----|-------2-----|-------2-----|-------2-----|
|---------2---|---------2---|---------3---|---------3---|
|-----------3-|-----------3-|-----4-----4-|-----4-----4-|
|-----4-------|-----4-------|---4---------|---4---------|
|---4---------|---4---------|-2-----------|-2-----------|
|-2-----------|-2-----------|-------------|-------------|


C G

|-------0-----|-------0-----|-------3-----|-------3-----|
|---------1---|---------1---|---------0---|---------0---|
|-----0-----0-|-----0-----0-|-----0-----0-|-----0-----0-|
|---2---------|---2---------|---0---------|---0---------|
|-3-----------|-3-----------|-------------|-------------|
|-------------|-------------|-3-----------|-3-----------|


C Am

|-------0-----|-------------|-------0-----|--------||
|---------1---|-------------|---------1---|--------||
|-----0-----0-|-----0-----0-|-----2-----2-|--------||
|---2---------|---2-----0---|---2---------|-2------||
|-3-----------|-3-----2-----|-0-----------|--------||
|-------------|-------------|-------------|--------||



D G5

|-------2-----|-------2-----|-------3-----|-------3-----|
|-----3---3---|-----3---3---|---------3---|---------3---|
|---2-------2-|---2-------0-|-----0-----0-|-----0-----0-|
|-0-----------|-0-----------|---0---------|---0---------|
|-------------|-------------|-------------|-------------|
|-------------|-------------|-3-----------|-3-----------|


D G5

|-------2-----|-------2-----|-------3-----|-------3-----|
|-----3---3---|-----3---3---|---------3---|---------3---|
|---2-------2-|---2-------0-|-----0-----0-|-----0-----0-|
|-0-----------|-0-----------|---0---------|---0---------|
|-------------|-------------|-------------|-------------|
|-------------|-------------|-3-----------|-3-----------|


D G5

|-------2-----|-------2-----|-------3-----|-------3-----|
|-----3---3---|-----3---3---|---------3---|---------3---|
|---2-------2-|---2-------0-|-----0-----0-|-----0-----0-|
|-0-----------|-0-----------|---0---------|---0---------|
|-------------|-------------|-------------|-------------|
|-------------|-------------|-3-----------|-3-----------|


D G5 G&F#
6&8

|-------2-----|-------2-----|-------3-----|-------------||
|-----3---3---|-----3---3---|---------3---|-------------||
|---2-------2-|---2-------0-|-----0-----0-|-----0-----0-||
|-0-----------|-0-----------|---0---------|---0-----0---||
|-------------|-------------|-------------|-------------||
|-------------|-------------|-3-----------|-3-----2-----||



Em A

|-------0-----|-------0-----|-------0-----|-------0-----|
|---------0---|---------0---|---------2---|---------2---|
|-----------0-|-----------0-|-----2-----2-|-----2-----2-|
|-----2-------|-----2-------|---2---------|---2---------|
|---2---------|---2---------|-0-----------|-0-----------|
|-0-----------|-0-----------|-------------|-------------|


Em A


|-------0-----|-------0-----|-------0-----|-------0-----|
|---------0---|---------0---|---------2---|---------2---|
|-----------0-|-----------0-|-----2-----2-|-----2-----2-|
|-----2-------|-----2-------|---2---------|---2---------|
|---2---------|---2---------|-0-----------|-0-----------|
|-0-----------|-0-----------|-------------|-------------|


Em A


|-------0-----|-------0-----|-------0-----|-------0-----|
|---------0---|---------0---|---------2---|---------2---|
|-----------0-|-----------0-|-----2-----2-|-----2-----2-|
|-----2-------|-----2-------|---2---------|---2---------|
|---2---------|---2---------|-0-----------|-0-----------|
|-0-----------|-0-----------|-------------|-------------|




D G5
|-------||-------2-----|-------2-----|-------3-----|-------3-----|
|-------||-----3---3---|-----3---3---|---------3---|---------3---|
|-------||---2-------2-|---2-------0-|-----0-----0-|-----0-----0-|
|-------||-0-----------|-0-----------|---0---------|---0---------|
|-------||-------------|-------------|-------------|-------------|
|-------||-------------|-------------|-3-----------|-3-----------|


D G5


|-------2-----|-------2-----|-------3-----|-------3-----|
|-----3---3---|-----3---3---|---------3---|---------3---|
|---2-------2-|---2-------0-|-----0-----0-|-----0-----0-|
|-0-----------|-0-----------|---0---------|---0---------|
|-------------|-------------|-------------|-------------|
|-------------|-------------|-3-----------|-3-----------|


D&A G

||--------2-----|-------2-----|-------3-----|-------3-------||
||------3---3---|-----3---3---|---------3---|---------3-----||
||----2-------2-|---2-------0-|-----0-----0-|-----0-----0---||
||--0-----------|-0-----------|---0---------|---0-----------||
||--------------|-------------|-------------|---------------||
||--------------|-------------|-3-----------|-3-------------||




Everybody Hurts tab - R.E.M akoru
Everybody Hurts tab - R.E.M notaları,
Everybody Hurts tab - R.E.M tablar bas tablar akord akor oku



iletisim  Reklam  Gizlilik sözlesmesi
Diger sitelerimize baktiniz mi ? Radyo Dinle - milli piyango sonuclari - 2017 yeni yil mesajlari - Güzel sözler Sohbet 2003- 2016 Canim.net Her hakki saklidir.