Güzel sözler | Fıkra | Hikaye | Şiir - Şair| Şarkı sözleri | Türküler | Sohbet odaları | Rüya | Sağlık | Biyografi | islam | Güzeller | Paylaş


Canim.net
Akorlar
Akor Ekle
Şarkı sözleri
Yabancı şarkı sözleri
Çeviriler
Türkü
A  B  C  Ç  D  E  F  G  Ğ  H  I  İ  J  K  L  M  N  O  Ö  P  R  S  Ş  T  U  Ü  V  Y  Z 



Every Time I Die Bass - Children of Bodom



D||------------------------------|-----------------------------|
A||------------------------------|-----------------------------|
F||------------------------------|-----------------------------|
C||------------------------------|-----------------------------|
G||------------------------------|-----------------------------|
D||--0--0-0-0-0-0-0-0-0--0-0--0--|--0--0-0-0-0-0-0-0-0--0-0----|



------------------------------|---------------------------------|
------------------------------|---------------------------------|
------------------------------|---------------------------------|
------------------------------|---------------------------------|
------------------------------|-----------------3-3-3-3-5-5-5-5-|
--0--0-0-0-0-0-0-0-0--0-0--0--|--0--0-0-0-0-0-0-----------------|



------------------------------|-----------------------------|
------------------------------|-----------------------------|
------------------------------|-----------------------------|
------------------------------|-----------------------------|
------------------------------|-----------------------------|
--0--0-0-0-0-0-0-0-0--0-0--0--|--0--0-0-0-0-0-0-0-0--0-0----|



------------------------------|----------------------|
------------------------------|----------------------|
------------------------------|----------------------|
------------------------------|----------------------|
------------------------------|--0----3----0----5----|
--0--0-0-0-0-0-0-0-0--0-0--0--|----------------------|



|---------------------------|-----------------------------||
|---------------------------|-----------------------------||
|*--------------------------|----------------------------*||
|*--------------------------|----------------------------*||
|---7--7--7--7--5--5--7--7--|--------------3-3-3--5-5-5---||
|---------------------------|--7--7--7--7-----------------||



--------------------------|----------------------------|
--------------------------|----------------------------|
--------------------------|----------------------------|
--------------------------|----------------------------|
--7--7--7--7--5--5--7--7--|--------------3-3-3--5-5-5--|
--------------------------|--7--7--7--7----------------|



--------------------------|------------------------|-------------------|------|
--------------------------|------------------------|-------------------|------|
--------------------------|------------------------|-------------------|------|
--------------------------|------------------------|--2----------------|------|
--7--7--7--7--5--5--7--7--|--------------3----5----|-------------------|------|
--------------------------|--7--7--7--7------------|-------------------|------|



------|----------------------------|--------------------------|
------|----------------------------|--------------------------|
------|----------------------------|--------------------------|
------|------------------5------7--|--------2-----------------|
------|--2--2--2--2--3-3----5-5----|-----2-----7--------7--7--|
------|----------------------------|--0-------------0-0-------|



-------------------------|---------------------------|
-------------------------|---------------------------|
-------------------------|---------------------------|
-----------5--------5----|---------------------------|
--3--3--3-------3-3------|-----------7----------7----|
-------------------------|--0--0--0-------0-0-0------|



----------------------------|--------------------------|
----------------------------|--------------------------|
----------------------------|--------------------------|
------------------5------7--|--------2-----------------|
--2--2--2--2--3-3----5-5----|-----2-----7--------7--7--|
----------------------------|--0-------------0-0-------|



-------------------------|---------------------------|
-------------------------|---------------------------|
-------------------------|---------------------------|
-----------5--------5----|---------------------------|
--3--3--3-------3-3------|-----------7----------7----|
-------------------------|--0--0--0-------0-0-0------|



----------------------------|--------------------------|
----------------------------|--------------------------|
----------------------------|--------------------------|
------------------5------7--|--------2-----------------|
--2--2--2--2--3-3----5-5----|-----2-----7--------7--7--|
----------------------------|--0-------------0-0-------|



-------------------------|---------------------------|-------------------|
-------------------------|---------------------------|-------------------|
-------------------------|---------------------------|-------------------|
-----------5--------5----|---------------------------|-------------------|
--3--3--3-------3-3------|-----------7----------7----|--3----------------|
-------------------------|--0--0--0-------0-0-0------|-------------------|


2x
|--------------------------|-----------------------------||
|--------------------------|-----------------------------||
|*-------------------------|----------------------------*||
|*-------------------------|----------------------------*||
|---0--0--0--0-------------|-----------------------------||
|---------------3--3--5----|--0--0--0--0--1-1-1--3-3-3---||



----------------------|---------------------||-------------------------------|
----------------------|---------------------||-------------------------------|
----------------------|---------------------||*------------------------------|
----------------------|---------------------||*------------------------------|
--0----3----0----5----|--0--0---------------||---0--0-0-0-0-0----------------|
----------------------|--------3------------||-----------------3--3-3-3-3-3--|



-----------------------------||------------------------------|
-----------------------------||------------------------------|
----------------------------*||------------------------------|
----------------------------*||------------------------------|
--0--0-0----0--0--0-0-5--0---||--0--0-0-0-0-0----------------|
---------3-------------------||----------------3--3-3-3-3-3--|



----------------------------|------------------------------|
----------------------------|------------------------------|
----------------------------|------------------------------|
----------------------------|------------------------------|
--3--3--3--3--5--5--5-5-5-5-|------------------------------|
----------------------------|--0--0-0-0-0-0-0-0-0--0-0--0--|



-----------------------------|------------------------------|
-----------------------------|------------------------------|
-----------------------------|------------------------------|
-----------------------------|------------------------------|
-----------------------------|------------------------------|
--0--0-0-0-0-0-0-0-0--0-0----|--0--0-0-0-0-0-0-0-0--0-0--0--|



--------------------|--------------||---------------------------|
--------------------|--------------||---------------------------|
--------------------|--------------||*--------------------------|
--------------------|--------------||*--------2-----------------|
------------5--5----|--3-3---5-5---||------2-----7--------7--7--|
--------------------|--------------||---0-------------0-0-------|



-------------------------|---------------------------|
-------------------------|---------------------------|
-------------------------|---------------------------|
-----------5--------5----|---------------------------|
--3--3--3-------3-3------|-----------7----------7----|
-------------------------|--0--0--0-------0-0-0------|



-----------------------------||
-----------------------------||
----------------------------*||
------------------5------7--*||
--2--2--2--2--3-3----5-5-----||
-----------------------------||




Every Time I Die Bass - Children of Bodom akoru
Every Time I Die Bass - Children of Bodom notaları,
Every Time I Die Bass - Children of Bodom tablar bas tablar akord akor oku



iletisim  Reklam  Gizlilik sözlesmesi
Diger sitelerimize baktiniz mi ? Radyo Dinle - milli piyango sonuclari - 2017 yeni yil mesajlari - Güzel sözler Sohbet 2003- 2016 Canim.net Her hakki saklidir.