Güzel sözler | Fıkra | Hikaye | Şiir - Şair| Şarkı sözleri | Türküler | Sohbet odaları | Rüya | Sağlık | Biyografi | islam | Güzeller | Paylaş


Canim.net
Akorlar
Akor Ekle
Şarkı sözleri
Yabancı şarkı sözleri
Çeviriler
Türkü
A  B  C  Ç  D  E  F  G  Ğ  H  I  İ  J  K  L  M  N  O  Ö  P  R  S  Ş  T  U  Ü  V  Y  Z 



Ever Increasing Circles tab - Carcass



Intro
=====

||---------------||
||---------------||
||-9----7----4---||
||-9----7----4---||
||-7----5----2---||
||---------------||

Riff 1
. . . .
||--------------------------------------------------------------|
||--------------------------------------------------------------|
||--------------------------------------------------------------|
||--------------------------------------------------------------|
||-------7p6---6---7p6-3--6h3-2-------3p2---2--3p2--------------|
||-0-0-0-----7------------------0-0-0-----5--------3--5p3---2---|


. . . . .......
|-----------------------------------------------------------||
|-----------------------------------------------------------||
|-----------------------------------------------------------||
|--------------------------------------------------5555555--||
|-------7p6---6---7p6-3--6h3-2-------3p2---2--3p2--5555555--||
|-0-0-0-----7------------------0-0-0-----5---------3333333--||


Riff 2
Im not sure bout this part.I just play something like this ===>
. . . . . . . .
||-----------------------------------------------------------------------------------|
||-----------------------------------------------------------------------------------|
||----------------------65-----------------------------98--------------------------|
||-5&7-x--87-x--5&7-x--65-x-----5&7-x---87-x--5&7-x--76-x------------------------|
||-5&7-x--87-x--5&7-x--43-x-----5&7-x---87-x--5&7-x--76-x------------------------|
||-3&5-0--65-0--3&5-0------0-----3&5-0---65-x--3&5-0------0------------------------|


. . . . . .
||---------------------------------------------------------------------||
||---------------------------------------------------------------------||
||----------------------65--------------------------------------------||
||-5&7-x--87-x--5&7-x--65-x-----5&7-x---87-x---9--10--8--7----------||
||-5&7-x--87-x--5&7-x--43-x-----5&7-x---87-x---9--10--8--7----------||
||-3&5-0--65-0--3&5-0------0-----3&5-0---65-x---7--8---6--5----------||


Chorus
. . . . . . . .
||---------------------------------------------------------------------------||
||---------------------------------------------------------------------------||
||------------4--------------------------5-5---------------------------------||
||-2----------4---9------5------------5-5-----10-----------------------||
||-2----------2---9------5----------0-3-3-----10-----------------------||
||-0--0-0-0-0-----7------3--3-3-3-3------------8-----------------------||


Then
Riff 2
Chorus
Riff 1
and so on




Ever Increasing Circles tab - Carcass akoru
Ever Increasing Circles tab - Carcass notaları,
Ever Increasing Circles tab - Carcass tablar bas tablar akord akor oku



iletisim  Reklam  Gizlilik sözlesmesi
Diger sitelerimize baktiniz mi ? Radyo Dinle - milli piyango sonuclari - 2017 yeni yil mesajlari - Güzel sözler Sohbet 2003- 2016 Canim.net Her hakki saklidir.