Güzel sözler | Fıkra | Hikaye | Şiir - Şair| Şarkı sözleri | Türküler | Sohbet odaları | Rüya | Sağlık | Biyografi | islam | Güzeller | Paylaş


Canim.net
Akorlar
Akor Ekle
Şarkı sözleri
Yabancı şarkı sözleri
Çeviriler
Türkü
A  B  C  Ç  D  E  F  G  Ğ  H  I  İ  J  K  L  M  N  O  Ö  P  R  S  Ş  T  U  Ü  V  Y  Z 



Eski Köprünün Altında Tab - Duman



intro
G:----------------------------------
D:----------------------------------
A:----------------------------------
E:-4---4---5---4-7-12-12-&-5---5-0--
(12den kayma 5e kadar)

G:----------------------------------
D:----------------------------------
A:----------------------------------
E:-----4---5---4-7-12-12-&-0---0-0--
(12den kayma 0a kadar)
2 kes

kıta
D E
G:-----------------------------------------
D:-----------------------------------------
A:-----------------------------------------
E:-10-10-10-10-12-10-10-10-10-10-10-12-&-(0)
(12den kayma 0a kadar, 0 çalınmıo)
2 kes

intro bi kes

kıta 2 kes

intro bi kes

koro
G:--------------------------------
D:--------------------------------
A:-5-5-5-5-5-5-5-5-4-4-4-4-4-4-4-4
E:--------------------------------

G:--------------------------------
D:--------------------------------
A:-----------------2-2-2-2-2-2-2-2
E:-2-2-2-2-2-2-2-2----------------

G:--------------------------------
D:--------------------------------
A:-5-5-5-5-5-5-5-5-4-4-4-4-4-4-4-4
E:--------------------------------

F# G# A B
G:--------------------------------
D:--------------------------------
A:--------------------------------
E:-2-2-2-2-4-4-4-4-5-5-5-5-7-7-7-7
4 kes fln sora

G:--------------------------------------------------
D:--------------------------------------------------
A:-5-5-5-5-5-5-5-5-4-4-4-4-4-4-4-4-2----------------
E:---------------------------------------------12-&-
(12den kayma 0a kadar)

hepsi baştan sonra

G:--------------------------------
D:--------------------------------
A:-5-5-5-5-5-5-5-5-4-4-4-4-4-4-4-4
E:--------------------------------

bas solosu
G:-------------------------------4------------4---------
D:-----------------------------4------------4-----------
A:-2---------------2--------------------------2--------2
E:---------------2-------------2------------------------

koro

(F#-G#-A-B) kısmını octave çalabilen çalsın...
G:
D:---4---4---6---6---7---7---9---9
A:--------------------------------
E:-2---2---4---4---5---5---7---7--




Eski Köprünün Altında Tab - Duman akoru
Eski Köprünün Altında Tab - Duman notaları,
Eski Köprünün Altında Tab - Duman tablar bas tablar akord akor oku



iletisim  Reklam  Gizlilik sözlesmesi
Diger sitelerimize baktiniz mi ? Radyo Dinle - milli piyango sonuclari - 2017 yeni yil mesajlari - Güzel sözler Sohbet 2003- 2016 Canim.net Her hakki saklidir.