Güzel sözler | Fıkra | Hikaye | Şiir - Şair| Şarkı sözleri | Türküler | Sohbet odaları | Rüya | Sağlık | Biyografi | islam | Güzeller | Paylaş


Canim.net
Akorlar
Akor Ekle
Şarkı sözleri
Yabancı şarkı sözleri
Çeviriler
Türkü
A  B  C  Ç  D  E  F  G  Ğ  H  I  İ  J  K  L  M  N  O  Ö  P  R  S  Ş  T  U  Ü  V  Y  Z 



Entrails Ripped From A Virgin s Cunt tab - Cannibal Corpse



. - palm mute & - slide up to
- slide down to ~ - vibrato
h - hammer on b - Bend
p - pull off Suffixes for bend
t - tap f - full bend h - half bend
ph - pinched harmonic q - quarter bend t - tap bend
* - see comment ^ - Hold bend r release bend
x - Stuccatto ~ - vibrato bend rb - reverse bend
, - slight palm mute () - ghost note, sustained note
" - tremolo note <> - Trill

Tuning D# G# C# F# A# D#



Riff A x4 Fill 1 x1
|---------------||-------|
|---------------||-------|
|---------------||-------|
|-------------7-||-------|
|-----3---4---7-||-------|
|-000-1p0-2p0-5-||-000---|
... ...

Riff B x4 (at 0:13 dont play last 3 notes)
|---------------------------------|
|---------------------------------|
|---------------------------------|
|---------------------------------|
|-3---4---7---6---4---3---4-------|
|-1p0-2p0-5p0-4p0-2p0-1p0-2p0-000-|
...

Riff A x4

Riff C x8
|-----------------------|
|-----------------------|
|-----------------------|
|-----------------------|
|-----3-----3-----7&8-6-|
|-000-1-000-1-000-5&6-4-|
... ... ...

Riff D x4 (at 0:43 dont PM last note)
|-----------------------------------|
|-----------------------------------|
|-----------------------------------|
|-----------------------------------|
|-------------------------222-3-2---|
|-444-110-555-220-666-330-----------|
... ... ... ... ... ... ... . .

Passage x1 (Right channel only, left channel silent)
|-------------|
|-------------|
|-------------|
|-------------|
|-7&876-----|
|-5&654-000-|
...

Riff E x4
|--------------------------|
|--------------------------|
|--------------------------|
|-------222222-------------|
|--------------7&87-6-----|
|-444444-------5&65-4-000-|
...

Riff F1 x1
|--------------------------------------------------|
|--------------------------------------------------|
|--------------------------------------------------|
|-------222222-------------------------------------|
|-------------444444-------4&54-3-----7&87-6-----|
|-444444------------111100-2&32-1-000-5&65-4-000-|
... ...

Riff F2 x1
|--------------------------------------------------|
|--------------------------------------------------|
|--------------------------------------------------|
|-------222222-------------------------------------|
|-------------555555-------4&54-3-----7&87-6-----|
|-444444------------111100-2&32-1-000-5&65-4-000-|
... ...

Riff F1 x1

Riff F3 x1 Fill 2 x1
|----------------------------------------||--------|
|----------------------------------------||--------|
|----------------------------------------||--------|
|-------222222---------------------------||--------|
|-------------444444-------4&54-3---3---||-7&8-6--|
|-444444------------111100-2&32-1---1---||-5&6-4--|

Riff C x8
Fill 1 x1
Riff B x4

Riff G x8 Riff H x8 1-7
|------------------| |--------------------|------|
|------------------| |--------------------|------|
|------------------| |--------------------|------|
|------------------| |--------------------|------|
|-3---4---3--------| |-----4444-----4&5-3-|------|
|-1p0-2p0-1p0-000--| |-1111----1100-2&3-1-|-000--|
... ...

Riff I x8 (no slide last time. hit both chords)
|-----------------------------------|
|-----------------------------------|
|-----------------------------------|
|--------------------------3p2------|
|--------------------------1p0-43--|
|-333-000-111-000-333-000------21--|
... ... ... ... ... ...

Passage x1
Riff E x3

Riff J x1
|--------------------------|
|--------------------------|
|--------------------------|
|-------222222-------------|
|--------------4&54-3-----|
|-444444-------2&32-1-000-|
...

Riff K x4 1-3 4
|----------------------|------|----|
|----------------------|------|----|
|----------------------|------|----|
|----------------------|------|----|
|-444444-3&4-2-4&54-3-|------|-3--|
|--------1&2-0-2&32-1-|-000--|-1--|
...

Riff A x4
Fill 1 x1
Riff B x4 (4th time dont play last 3 notes)
Riff A x4
Riff C x8 (under lead, let final chord ring)

Fill 3 x1
|---------------|
|---------------|
|---------------|
|-4&5-3---------|
|-4&5-3-ring----|
|-2&3-1---------|

Riff L x4
|--------------------------------------------------|
|--------------------------------------------------|
|--------------------------------------------------|
|-99----------99----------99----------99-----------|
|----66-77-------66-77-------66-77-------66-77-----|
|----------44----------44----------44----------44--|

Riff D x4
Riff I x8
Riff L x2

Outro x4 1-3
|-----------------|------|
|-----------------|------|
|-----------------|------|
|-----------------|------|
|-7&8-6-----4&5-3-|------|
|-5&6-4-000-2&3-1-|-000--|
... ...


Solo I (w = whammy)
|---------------------------------------------------------------------
|--------------------------------------------------------------17-----
|-14-12-10----------14-12-10-------------------14~ ---14~ --14w--w14--
|----------13-12-10----------13-12-10--12"-15"------------------------
|---------------------------------------------------------------------
|---------------------------------------------------------------------

--------16-14-12-16w20w21w20---12-12-17-12-15-17-12h15p12----------
----19----------------------------------------------------15~ -----
-14w---------------------------------------------------------------
-------------------------------------------------------------------
-------------------------------------------------------------------
-------------------------------------------------------------------

------------------------------------------------------------------------|
------------------------------------------------------------------19b21-|
-16p13p12-16p13p12-12h13h14----------14h15h16-17fb-16h18h21-19-18-------|
----------------------------14p13p12------------------------------------|
------------------------------------------------------------------------|
------------------------------------------------------------------------|

Solo II (begins as soon as the last note of solo I is hit)
|--------------------------------------------------------------------------
|-------------------------------------10h11--------------------------------
|-------------10h11-------------10h11-------10h11-------------10h11--------
|-12h13-11h12-------11h13-11h12-------------------------12h13-------11h12--
|-------------------------------------------------13h14--------------------
|--------------------------------------------------------------------------


----------------------------------------13h14p13--------------------------
-------------10h11p10-------------14h15----------14h15p14-------14h15-----
-------10h11----------10h11-14h16-------------------------14h15-----------
-11h12--------------------------------------------------------------------
--------------------------------------------------------------------------
--------------------------------------------------------------------------


-13h14p13------------------------------------|
----------15p14----------14h15p14------------|
----------------14h15p14----------13~ ------|
---------------------------------------------|
---------------------------------------------|
---------------------------------------------|




Entrails Ripped From A Virgin s Cunt tab - Cannibal Corpse akoru
Entrails Ripped From A Virgin s Cunt tab - Cannibal Corpse notaları,
Entrails Ripped From A Virgin s Cunt tab - Cannibal Corpse tablar bas tablar akord akor oku



iletisim  Reklam  Gizlilik sözlesmesi
Diger sitelerimize baktiniz mi ? Radyo Dinle - milli piyango sonuclari - 2017 yeni yil mesajlari - Güzel sözler Sohbet 2003- 2016 Canim.net Her hakki saklidir.