Güzel sözler | Fıkra | Hikaye | Şiir - Şair| Şarkı sözleri | Türküler | Sohbet odaları | Rüya | Sağlık | Biyografi | islam | Güzeller | Paylaş


Canim.net
Akorlar
Akor Ekle
Şarkı sözleri
Yabancı şarkı sözleri
Çeviriler
Türkü
A  B  C  Ç  D  E  F  G  Ğ  H  I  İ  J  K  L  M  N  O  Ö  P  R  S  Ş  T  U  Ü  V  Y  Z 



Enter Sandman - Metallica



intro
1)
D--------5-------------5----
A-----7--------7----7-------
E--0-------6-5---0-------6-5
clean (yes, there are other ways to play this riff, but this is how
James plays it on "A Year and a half...pt1"


2a)
D----------------------------------
A--2-------------&7--------------&7
E--0--0-0-0-0-0-0---0-0-0-0-0-0-0--
pm.......... .............

2b)
D------------------
A-----&7----------3
E--0-0---6--0-0-0-1

2c)
D-------------------
A-----&7-----------3
E--0-0---6-5-0-0-0-1
pm.. .......


3)Main riff
D---------------- -----------------------
A--2--2-&7------- 3 times ----5-----4-----4-5-4-2
E--0--0----6--5~~ -0--3--0--2--0--2-3-2-0


4)
D-----------------
A--2-------------3 twice then end with riff above^
E--0-0-0-0-0-0-0-1
pm..............
Say your prayers...


5)
G--------2--------------2------
D-----4--------4-----4--------4
A----------3-2------------3-2--
E--2--------------2------------
Sleep with one eye...


6)
D------5--4-----5--4-----5--4---
A---4--3--2--4--3--2--4--3--2--2
E--2--------2--------2--------0
Exit light

after the solo riff 1) is played until he comes in with "hush little baby"
where it moves up a step (changes to riff 5 clean)

_____________________________________
solo by Jake Horbol

--------------------------------|------------------------------|
--15--15--15----------------15--|----15--15--------15b---15b---|
--14b-14b-14b-14--14b-14----14b-|----14--14--14p12-------------|
--------------------------------|------------------------------|
--------------------------------|------------------------------|
--------------------------------|------------------------------|



--------------------------------------------------|
--------------------------------------------------|
--12&14-14-14-1412-12-12-12&14-14-14-1412-12-12-|
--------------------------------------------------|
--10&12-12-12-1210-10-10-10&10-10-10-1010-10-10-|
--------------------------------------------------|



--------------------------------------|
--------------------------------------|
--14-12-------------------------------|
--------14--14p12---------------------|
------------------14--14p12-----------|
----------------------------15--12~---|



-----12----12----12----12----12----12----12----12-|
--15b---15b---15b---15b---15b---15b---15b---15b---|
--------------------------------------------------|
--------------------------------------------------|
--------------------------------------------------|
--------------------------------------------------|



-----12----12h15p12----12h15p12----12h15p12----12-15-12-12-14-14-|
--15b---15b---------15----------15----------15-------------------|
-----------------------------------------------------------------|
-----------------------------------------------------------------|
-----------------------------------------------------------------|
-----------------------------------------------------------------|



--17p14----17p14----17p14-19p15----19p15----19p15-|
--------15-------15-------------17-------17-------|
--------------------------------------------------|
--------------------------------------------------|
--------------------------------------------------|
--------------------------------------------------|



--21p17----21p17p0-21p17-22b---------|--------------------|
--------17------------------------9b-|------9b-----9b-----|
----------------------------------9b-|------9b-----9b-----|
-------------------------------------|--------------------|
-------------------------------------|--------------------|
-------------------------------------|--------------------|



---------------------------|-------------------------------|
--9b---9b---------------10~|------10-8-7---8p7---7---------|
--9b---9b---7---------7----|-------------9-----9---9-7---7-|
--------------9~--7h9------|---------------------------9---|
---------------------------|-------------------------------|
---------------------------|-------------------------------|



--------------------------------|--------------------------------------|
--------------------------------|--------------------------------------|
--9p7---------------------------|--16b-14---------14-16b-14~--------14-|
------9p7---7-9p7---------------|----------16--16------------16--16----|
----------9-------9-8-7-5-------|--------------------------------------|
--------------------------7--5-|--------------------------------------|



--------------------------------------|----------------------------------|
--------------------------------------|------17-------17-17------17--17--|
--16b-14~--------14-16b-14---------14-|--16b----16-16b---16b---------16b-|
----------16--16------------16~-16----|----------------------------------|
--------------------------------------|----------------------------------|
--------------------------------------|----------------------------------|




----------------------------|--21p17p0-21p17p0-21p17p0-21p17p0-21p17p0-21p17p0-|
----------------------------|--------------------------------------------------|
------16--16----16--16------|--------------------------------------------------|
------------------------20--|--------------------------------------------------|
----------------------------|--------------------------------------------------|
----------------------------|--------------------------------------------------|



--22b-22b22b22b-22b22b22b-------|----5p3p0---------------------|
--------------------------------|----------5--5p3-0------------|
--------------------------------|--------------------4p2-0--2b-|
--------------------------------|------------------------------|
--------------------------------|------------------------------|
--------------------------------|------------------------------|



-----------------------|--------------------|-------------------------|
-----------------------|--------------------|-------------------------|
--0--------------------|--------------------|-------------------------|
----2~-----------0h2p0-|--------------------|-------------------------|
-----------------------|--4~-------------0--|--2----2--2--2--2--2--2--|
-----------------------|--------------------|-------------------------|



--------------------------|
--------------------------|
--------------------------|
--------------------------|
--2--2--2--2--2--2--2-----|
-----------------------0--|





Enter Sandman - Metallica akoru
Enter Sandman - Metallica notaları,
Enter Sandman - Metallica tablar bas tablar akord akor oku



iletisim  Reklam  Gizlilik sözlesmesi
Diger sitelerimize baktiniz mi ? Radyo Dinle - milli piyango sonuclari - 2017 yeni yil mesajlari - Güzel sözler Sohbet 2003- 2016 Canim.net Her hakki saklidir.