Güzel sözler | Fıkra | Hikaye | Şiir - Şair| Şarkı sözleri | Türküler | Sohbet odaları | Rüya | Sağlık | Biyografi | islam | Güzeller | Paylaş


Canim.net
Akorlar
Akor Ekle
Şarkı sözleri
Yabancı şarkı sözleri
Çeviriler
Türkü
A  B  C  Ç  D  E  F  G  Ğ  H  I  İ  J  K  L  M  N  O  Ö  P  R  S  Ş  T  U  Ü  V  Y  Z 



Embodiment Bas tab - Carcass



Tuning: B,E,A,D

Intro:

|----------------
|----------------
|-------1--------
|-000-1---1-0~---

Riff 1: X2

|--------------------------4---
|---6-7-9--7-6-----4-5---2---2-
|-4------------7-2-----0-------
|------------------------------

|--------------6----------4--
|---6-7-9--7-6-----4-5--2----
|-4--------------2-----0-----
|----------------------------

Riff 2: x2
Ending 1
|---------------------------------|---------------------------------|
|---4-5---4-5---4-5-7-4-5---------|---2-4---2-4---4-----------------|
|-2-----2-----2-----------7-4-5-2-|-1-----1-----1-----4-5---4-5---5-|
|---------------------------------|-----------------3-----3-----3---|

Ending 2
|-----------------------|
|---2-4---2-4---4-------|
|-1-----1-----1---------|
|-----------------3-3-3-|

Riff 3: x6

|------------------------------------------
|------------------------------------------
|-------1---------1---------1--------------
|-000-1---1-000-1---1-400-1---1-0000000000-

Riff 1

Riff 1 varitation:

|--------------------------4---
|---6-7-9--7-6-----4-5---2---2-
|-4------------7-2-----0-------
|------------------------------

|------------6--------
|---6-7-9--7----------
|-4-------------------
|--------------3-3-3--

Riff 3: x4

Riff 1 x2

Riff 2 x2 (with ending 1 only)

Riff 2 with new endings:
Ending 1 Ending 2
|---------------------------------|-------------|----------------|
|---4-5---4-5---4-5-7-4-5---------|-------------|----------------|
|-2-----2-----2-----------7-4-5-2-|-1~----------|-1~----4--------|
|---------------------------------|-------1~----|---------1~-----|

Riff 4: x 4

|--------------4-5-4---------9-7-6---------9-7-6-----------
|----7---6---7-------7-5-4---------9-7-6----------9-7-6----
|-00---0---0---------------5-------------5--------------7--
|----------------------------------------------------------

Riff 5: x 2

|--------------------------------
|--------------------------------
|--------------------------------
|-3~-----4~------1~------4~------

Riff 3 x 6

Riff 1 x 2

Riff 2 x 2 (ending 1 only)

Riff 2 variation

Riff 4 x 4

Riff 5 x 10




Embodiment Bas tab - Carcass akoru
Embodiment Bas tab - Carcass notaları,
Embodiment Bas tab - Carcass tablar bas tablar akord akor oku



iletisim  Reklam  Gizlilik sözlesmesi
Diger sitelerimize baktiniz mi ? Radyo Dinle - milli piyango sonuclari - 2017 yeni yil mesajlari - Güzel sözler Sohbet 2003- 2016 Canim.net Her hakki saklidir.