Güzel sözler | Fıkra | Hikaye | Şiir - Şair| Şarkı sözleri | Türküler | Sohbet odaları | Rüya | Sağlık | Biyografi | islam | Güzeller | Paylaş


Canim.net
Akorlar
Akor Ekle
Şarkı sözleri
Yabancı şarkı sözleri
Çeviriler
Türkü
A  B  C  Ç  D  E  F  G  Ğ  H  I  İ  J  K  L  M  N  O  Ö  P  R  S  Ş  T  U  Ü  V  Y  Z 



Earthquake Parttab - Cem Köksal



D#||-------------|-------------------------|-------------------------|
A#||-------------|-------------------------|-------------------------|
F#||-------------|-------------------------|--5--------0-------------|
C#||-------------|--7----------------------|--5----------3-2-0-------|
G#||-------------|--7--------------5-------|--3--3-3-3---------3-2-0-|
D#||--5&-12&-----|--5--5-5-5-5-7-8---8-7-8-|-------------------------|

-------------------------|---------------------|-------------------------|
-------------------------|---------------------|-------------------------|
-------------------------|-------------5---4---|-------------------------|
--3----------------------|--2----------5---4---|--7----------------------|
--3------------------0---|--2----------3---2---|--7--------------5-------|
--1--1-1-1-1-1-3-1-3---1-|--0--0-0-0-0---------|--5--5-5-5-5-7-8---8-7-8-|

-------------------------|-------------------------|---------------------|
-------------------------|-------------------------|---------------------|
--5--------0-------------|-------------------------|-------------5---7---|
--5----------3-2-0-------|--3----------------------|--2----------5---7---|
--3--3-3-3---------3-2-0-|--3------------------0---|--2----------3---5---|
-------------------------|--1--1-1-1-1-1-3-1-3---1-|--0--0-0-0-0---------|

-------------------------|-------------------------|-------------------------|
-------------------------|-------------------------|-------------------------|
-------------------------|--5----------------------|-------------------------|
--7----------------------|--5----------3-2-0-------|--3----------------------|
--7--------------5-------|--3--3-3-3-3-------3-2-0-|--3------------------0---|
--5--5-5-5-5-7-8---8-7-8-|-------------------------|--1--1-1-1-1-1-3-1-3---1-|

--------------------|-------------------------|-------------------------|
-----------------0--|-------------------------|-------------------------|
-----------0--2-----|-------------------------|--5--------0-------------|
--0--2--3-----------|--7----------------------|--5----------3-2-0-------|
--------------------|--7--------------5-------|--3--3-3-3---------3-2-0-|
--------------------|--5--5-5-5-5-7-8---8-7-8-|-------------------------|

-------------------------|---------------------|------------------------|
-------------------------|---------------------|------------------------|
-------------------------|-------------5---4---|--2---------------------|
--3----------------------|--2----------5---4---|--2---------------------|
--3------------------0---|--2----------3---2---|--0---------------------|
--1--1-1-1-1-1-3-1-3---1-|--0--0-0-0-0---------|-------4-5-7--------5-7-|
Cem Solo gitar Başlangıcı.
------------------|---------------|---------------------------|-----------------|
------------------|---------------|---------------------------|-----------------|
------------------|---------------|---------------------------|-----------------|
------------------|--3------------|---------------------------|--7-------7------|
--------8-7-5-3-2-|--3------------|--8-7-5---7-5--------------|--7-------7------|
--8-7-8-----------|--1------------|--------8-----8-7-0--8--7--|--5----5--5------|

-----------------|-------------------|--------------------|-----------------|
-----------------|-------------------|--------------------|-----------------|
-----------------|-------------------|--------------------|-----------------|
--9-------9------|--10-------10------|--14--------14------|--7-------7------|
--9-------9------|--10-------10------|--14--------14------|--7-------7------|
--7----7--7------|--8-----8--8-------|--12----12--12------|--5----5--5------|

-----------------|-------------------|--------------------|-----------------|
-----------------|-------------------|--------------------|-----------------|
-----------------|-------------------|--------------------|-----------------|
--9-------9------|--10-------10------|--14--------14------|--7-------7------|
--9-------9------|--10-------10------|--14--------14------|--7-------7------|
--7----7--7------|--8-----8--8-------|--12----12--12------|--5----5--5------|

-----------------|-------------------|--------------------|-----------------|
-----------------|-------------------|--------------------|-----------------|
-----------------|-------------------|--------------------|-----------------|
--9-------9------|--10-------10------|--14--------14------|--7-------7------|
--9-------9------|--10-------10------|--14--------14------|--7-------7------|
--7----7--7------|--8-----8--8-------|--12----12--12------|--5----5--5------|

-----------------|-------------------|--------------------|------------------------|
-----------------|-------------------|--------------------|------------------------|
-----------------|-------------------|--------------------|--2---------------------|
--9-------9------|--10-------10------|--14--------14------|--2---------------------|
--9-------9------|--10-------10------|--14--------14------|--0---------------------|
--7----7--7------|--8-----8--8-------|--12----12--12------|-------4-5-7--------5-7-|

------------------|---------------|---------------------------|-----------------|
------------------|---------------|---------------------------|-----------------|
------------------|---------------|---------------------------|-----------------|
------------------|--3------------|---------------------------|--7-------7------|
--------8-7-5-3-2-|--3------------|--8-7-5---7-5--------------|--7-------7------|
--8-7-8-----------|--1------------|--------8-----8-7-0--8--7--|--5----5--5------|

----------------|----------------|-----------------|-----------------|
----------------|----------------|-----------------|-----------------|
----------------|----------------|-----------------|-----------------|
------9----9----|--7--------3----|-----3-----------|--3--------------|
------9----9----|--7--------3----|-----3-----------|--3--------------|
------7----7----|--5--------1----|--1--1--------1--|--1------1----1--|

-----------------|----------------|----------------|-----------------|
-----------------|----------------|----------------|-----------------|
-----------------|----------------|----------------|-----------------|
--7-------7------|------9----9----|--7--------3----|-----3-----------|
--7-------7------|------9----9----|--7--------3----|-----3-----------|
--5----5--5------|------7----7----|--5--------1----|--1--1--------1--|



Earthquake Part 1 Cem Köksal Solo Gitar

berkgitarist@hotmail.com
Berk KÖKSAL

--------------------------------------12-13-15-17-15-13-|
-----------------------------12-13-15-------------------|
--------------------12-13-15----------------------------|
-----------12-14-15-------------------------------------|
--12-14-15----------------------------------------------|
--------------------------------------------------------|



--12------------------------------------|--------------------|--------------------|
-----15-13-12---------------------------|--10~-------12&-13--|--12~-------13&-15--|
--------------15-13-12----------10--12--|--------------------|--------------------|
-----------------------15-14------------|--------------------|--------------------|
----------------------------------------|--------------------|--------------------|
----------------------------------------|--------------------|--------------------|



--------------------12----|--13h12h13h12h10----------------13h17h13-------|
--13h15h13h12h13~---------|-----------------------------13----------13----|
--------------------------|--------------------------14----------------14-|
--------------------------|-----------------------15----------------------|
--------------------------|-----------------12-15-------------------------|
--------------------------|-----------------------------------------------|



-------------------|-------------------|------------------------|
-------------------|-------------------|------------------------|
-------------------|-------------------|-------------------9----|
------------9&-10--|--9~-------10&-12--|--10h12h10h9h10~--------|
--12~--------------|-------------------|------------------------|
-------------------|-------------------|------------------------|



------------------------13h17h13-------|--------------------|--------------------|
---------------------13----------13----|------------12&-13--|--12~-------13&-15--|
--10h9h10h9h7-----14----------------14-|--14~---------------|--------------------|
---------------------------------------|--------------------|--------------------|
---------------12----------------------|--------------------|--------------------|
---------------------------------------|--------------------|--------------------|



--------------------12----|--13h12h13h12h10-----------13h17h13-------|
--13h15h13h12h13~---------|------------------------13----------13----|
--------------------------|---------------------14----------------14-|
--------------------------|------------------------------------------|
--------------------------|------------------12----------------------|
--------------------------|------------------------------------------|



-------------------|-------------------|------------------------|
-------------------|-------------------|------------------------|
-------------------|-------------------|-------------------9----|
------------9&-10--|--9~-------10&-12--|--10h12h10h9h10~--------|
--12~--------------|-------------------|------------------------|
-------------------|-------------------|------------------------|



-------------------------|------------------------|----------------------|
-------------------------|------------------------|----------------------|
--10h9h10h9h7------------|------------------------|----------10-9-7------|
---------------10--9--6--|--7----6-7-9--------7-9-|--10-9-10--------10-9-|
-------------------------|------------------------|----------------------|
-------------------------|------------------------|----------------------|



-------------------------|--13-12-10---------------------------|
-------------------------|-----------13-12-10------------------|
-------------------------|--------------------12-10-9--10--12--|
--3h5h3h5h3h5h3h5--------|-------------------------------------|
-------------------------|-------------------------------------|
------------------12&-5--|-------------------------------------|



----------------12-17-------12-17~-|----------13-16-13----------13-16-13----------16-|
-------------13----------13--------|-------15----------15----15----------15----15----|
----------14----------14-----------|----16----------------16----------------16-------|
-----------------------------------|-------------------------------------------------|
--12~------------------------------|-------------------------------------------------|
-----------------------------------|-------------------------------------------------|



--17~-------12-13-12-10-|--12-13-12-10-12-13-12-10-12-13-12-10-|
------------------------|--------------------------------------|
------------------------|--------------------------------------|
------------------------|--------------------------------------|
------------------------|--------------------------------------|
------------------------|--------------------------------------|



--13-12-10---------------------------------|----------------12-17-------12-17~-|
-----------13-12-10------------------------|-------------13----------13--------|
--------------------12-9-7-9-10-9-7-5------|----------14----------14-----------|
--------------------------------------6----|-----------------------------------|
-------------------------------------------|--12~------------------------------|
-------------------------------------------|-----------------------------------|



----------13-16-13----------13-16-13----------16-|--17~-------19-20-19-17-|
-------15----------15----15----------15----15----|------------------------|
----16----------------16----------------16-------|------------------------|
-------------------------------------------------|------------------------|
-------------------------------------------------|------------------------|
-------------------------------------------------|------------------------|



--------------19-20-19-17-------------|--19-20-19-17-19-20-19-17-19-20-19-17-|
--13-12-13-12-------------13-12-13-12-|--------------------------------------|
--------------------------------------|--------------------------------------|
--------------------------------------|--------------------------------------|
--------------------------------------|--------------------------------------|
--------------------------------------|--------------------------------------|



--21b-----21b-----|------0--10--12--13--|--12-13-12-10----10-------------|
------------------|---------------------|--------------13----13-12-------|
------------------|---------------------|--------------------------10----|
------------------|---------------------|--------------------------------|
------------------|---------------------|--------------------------------|
------------------|---------------------|--------------------------------|



-----------------|-------------------|--21b-----21b-----|
--------8----10--|-------8-----------|------------------|
-----------------|--9-------10--9----|------------------|
-----------------|-------------------|------------------|
-----------------|-------------------|------------------|
-----------------|-------------------|------------------|



--20-19-17-19-20-19-17-19-20-19-17-19-|--20-19-17-15-19-17-15-13-17-15-13-12-|
--------------------------------------|--------------------------------------|
--------------------------------------|--------------------------------------|
--------------------------------------|--------------------------------------|
--------------------------------------|--------------------------------------|
--------------------------------------|--------------------------------------|



--15-13-12--------------------------|--12~-----------|
-----------13-12-10-----------------|----------------|
--------------------12-10-9---------|----------------|
----------------------------12-10-9&|----------------|
------------------------------------|----------------|
------------------------------------|----------------|



---------------------------------|----------------|------------------|
--13--12--12-13-12-10-9-10-12~---|----------15~---|----------13--12--|
---------------------------------|----------------|------------------|
---------------------------------|----------------|------------------|
---------------------------------|----------------|------------------|
---------------------------------|----------------|------------------|



------------------------|----------------12----|--12~-----------|
--13----10--12------10--|--12--13--15~---------|----------------|
----------------13------|----------------------|----------------|
------------------------|----------------------|----------------|
------------------------|----------------------|----------------|
------------------------|----------------------|----------------|



----------0-13-12-10-------------|------------17-15-13-12-15-|
--13--12-------------13-12-10----|---------------------------|
------------------------------12-|--10-9~--------------------|
---------------------------------|---------------------------|
---------------------------------|---------------------------|
---------------------------------|---------------------------|



--13-12-10-13-12-10-8-12-10-8-7-10-|--8-7-5-8-7-5-0&-----|--12~-----------|
-----------------------------------|---------------------|----------------|
-----------------------------------|---------------------|----------------|
-----------------------------------|---------------------|----------------|
-----------------------------------|---------------------|----------------|
-----------------------------------|---------------------|----------------|



---------------------------------|----------------|------------------|
--13--12--12-13-12-10-9-10-12~---|----------15~---|----------13--12--|
---------------------------------|----------------|------------------|
---------------------------------|----------------|------------------|
---------------------------------|----------------|------------------|
---------------------------------|----------------|------------------|



------------12h17h12h17--------12h17h12h17----|----------------|
---------13-----------------13----------------|--17~-----------|
------14-----------------14-------------------|----------------|
----------------------------------------------|----------------|
--12------------------------------------------|----------------|
----------------------------------------------|----------------|



----------0-13-12-10-------------|----------------------|
--13--12-------------13-12-10----|----------------------|
------------------------------12-|--10-9----------------|
---------------------------------|----------------------|
---------------------------------|----------------------|
---------------------------------|--------------8-10-12-|



-----------------------------------10-12-13-12-10----|
--------------------------10-12-13----------------13-|
------------------9-10-12----------------------------|
----------9-10-12------------------------------------|
--8-10-12--------------------------------------------|
-----------------------------------------------------|



----------------------------------------------|------------------------|
--12-10---------------------------------------|------------------------|
--------12-10-9-------------------------------|------------------------|
----------------12-10-9-----------------------|--7---------------------|
------------------------12-10-8---------------|--7---------------------|
--------------------------------12-10-8-7--5--|--5----4-5-7--------5-7-|



------------------|---------------|--0----13-12-10---------------------|
------------------|---------------|----------------13-12-10------------|
------------------|---------------|-------------------------12-10-9~---|
------------------|--3------------|------------------------------------|
--------8-7-5-3-2-|--3------------|------------------------------------|
--8-7-8-----------|--1------------|------------------------------------|



---------------------------------|--------------------------------|
---------------------------------|--------------------------------|
------12-10-9--------------------|--------------------------------|
--------------12-10-9------------|--------------9-10-12-10-9------|
----------------------12-10-8~---|------8-10-12--------------7----|
---------------------------------|--------------------------------|



--------------------------------|-------------------------|-------------------|
--------------------------------|-------------------------|-------------------|
--------------------------------|-------------------------|-------------------|
----------10-9-7------10-9-7----|-------------------------|-------------------|
--7--7-----------10-9--------10-|--8----------------------|-------------------|
--------------------------------|----12-10-8-7-5----------|--5-7-7-5-4~-------|



----------------------|--------------------------|----------------------|
----------------------|--------------------------|----------------------|
----------------------|--------------------------|----------------------|
----------------------|----------5---------------|-----------------3----|
--------------5-7--7--|--7-5-------8-7-5-------8-|--7-5------------3----|
--5--5--5-7-8---------|------8-7---------8-7-5---|------8-7-5-3----1--1-|



------------------------|------------------------|---|---|---|---|---||
------------------------|------------------------|---|---|---|---|---||
------------------------|------------------------|---|---|---|---|---||
------------------------|--2---------------------|---|---|---|---|---||
------------------------|--2---------------------|---|---|---|---|---||
--1-1-1-1-1-1-1-1-3--5--|--0--0-0-0-0-0-0-0-1--0-|---|---|---|---|---||




Earthquake Parttab - Cem Köksal akoru
Earthquake Parttab - Cem Köksal notaları,
Earthquake Parttab - Cem Köksal tablar bas tablar akord akor oku



iletisim  Reklam  Gizlilik sözlesmesi
Diger sitelerimize baktiniz mi ? Radyo Dinle - milli piyango sonuclari - 2017 yeni yil mesajlari - Güzel sözler Sohbet 2003- 2016 Canim.net Her hakki saklidir.